Oops, an error
Loading. Please wait.

Incomparable Mr Flannery bass

version 1
version 1

Whole song

Interactive

by Clutch
193 views 1 this week
no commentswrite comment
1 2 3 4 5
2 more votes to show rating
add to favorites
×
Save as Personal and add changes to this tab that will be seen only by you. Learn more ›
×
You can save this tab as Personal to edit and correct it or add notes. All changes will be seen only by you. Learn more »
launch autoscroll
font size
0
reset
guitar tuner
edit
Autoscroll
slow
fast
+/-
esc
set tempo
stop
Author
Difficulty
-------------------------------------------------------------------------------
                   The Incomparable Mr. Flannery - Clutch
-------------------------------------------------------------------------------
Tabbed by: 790FX
Album: Robot Hive/Exodus
Tuning: Drop D (DADG)

This song isn't hard but the timing is important and sometimes a bit tricky. 
By the way this song is called THE Incomparable Mr. Flannery. :D

Intro @ 0:05

G|-----------------|-----------------|
D|-----------------|-----------------|
A|-----------------|-----------------| x2
D|------Rest-------|-----------7-5-7-|


Verse @ 0:14

G|-----------------|-----------------|
D|-----------------|-----------------|
A|-----------------|-----------------| x4
D|------Rest-------|-----------7-5-7-|

G|-----------------|-----------------|
D|-----------------|-----------------|
A|-0-0-0-0-3-0---0-|-3-0-0---3-------| x2
D|-------------5---|-------5---7-5-7-|

   e e   e e   e e   e e
G|-----------------------|
D|-----------------------|
A|-----------------------|
D|-5-7---5-7---5-7---5-7-|


Chorus @ 0:45

G|------------------|------------------|------------------|---------------------|
D|------------------|------------------|------------------|---------------------|
A|------------------|------------------|------------------|---------------------|
D|--------0-0-3-0-0-|--------0-0-3-0-0-|--------0-0-3-0-0-|--------0-0-3-0-0-5~-|
         
       R              R              R              R
G|--------------|--------------|--------------|--------------|
D|--------------|--------------|--------------|--------------|
A|--------------|--------------|--------------|--------------|
D|-0-0---3-0-5~-|-0-0---3-0-5~-|-0-0---3-0-5~-|-0-0---3-0-5~-|


Repeat:
        Verse section @ 1:06 x1


Chorus @ 1:36

G|------------------|------------------|------------------|------------------|
D|------------------|------------------|------------------|------------------|
A|------------------|------------------|------------------|------------------|
D|--------0-0-3-0-0-|--------0-0-3-0-0-|--------0-0-3-0-0-|--------0-0-3-0-0-|

G|------------------|------------------|------------------|---------------------|
D|------------------|------------------|------------------|---------------------|
A|------------------|------------------|------------------|---------------------| This slides from D5 
D|--------0-0-3-0-0-|-5\-----0-0-3-0-0-|--------0-0-3-0-0-|-5\-----0-0-3-0-0-5~-| sounds so damn good.

       R              R              R              R
G|--------------|--------------|--------------|--------------|
D|--------------|--------------|--------------|--------------|
A|--------------|--------------|--------------|--------------|
D|-0-0---3-0-5~-|-0-0---3-0-5~-|-0-0---3-0-5~-|-0-0---3-0-5~-|


Interlude @ 2:06

   e e e   e e e e   e       e e e   e e e e   e   
G|-------------------------|-------------------------|
D|-------------------------|-------------------------|
A|-0-0-0-3---0-0-0-3---0---|-0-0-0-3---0-0-0-3---0---|
D|-----------------------5-|-----------------------5-|

   e e e   e e e e   e       e e e   e e e e   e  
G|-------------------------|-------------------------|
D|-------------------------|-------------------------|
A|-0-0-0-3---0-0-0-3---0---|-0-0-0-3---0-0-0-3-------|
D|-----------------------5-|---------------------7-6-|

   e e e   e e e e   e R R   e e e   e e e e   e R R
G|-------------------------|-------------------------|
D|-------------------------|-------------------------|
A|-------------------------|-------------------------|
D|-5-5-5-8---5-5-5-8-------|-5-5-5-8---5-5-5-8-------|

G|------------------|------------------|
D|------------------|------------------|
A|------------------|-------Rest-------|
D|-7*------------7\-|------------------|


Chorus @ 2:34

G|------------------|------------------|------------------|------------------|
D|------------------|------------------|------------------|------------------|
A|------------------|------------------|------------------|------------------|
D|--------0-0-3-0-0-|--------0-0-3-0-0-|--------0-0-3-0-0-|--------0-0-3-0-0-|

G|------------------|------------------|------------------|---------------------|
D|------------------|------------------|------------------|---------------------|
A|------------------|------------------|------------------|---------------------|
D|--------0-0-3-0-0-|-5\-----0-0-3-0-0-|--------0-0-3-0-0-|-5\-----0-0-3-0-0-5~-|

       R              R              R              R
G|--------------|--------------|--------------|--------------|
D|--------------|--------------|--------------|--------------|
A|--------------|--------------|--------------|--------------| x2
D|-0-0---3-0-5~-|-0-0---3-0-5~-|-0-0---3-0-5~-|-0-0---3-0-5~-|


Outro @ 3:13

       R              R              R              R
G|--------------|--------------|--------------|--------------|
D|--------------|--------------|--------------|--------------|
A|--------------|--------------|--------------|--------------| 
D|-0-0---3-0-5~-|-0-0---3-0-5~-|-0-0---3-0-5~-|-0-0---3-0-5~-|

       R              R              R              R
G|--------------|--------------|--------------|--------------|---------12-----|-(12)------------|
D|--------------|--------------|--------------|---------0----|------12--------|-(12)------------|
A|--------------|--------------|--------------|-----------10-|-(10)-----------|-(10)------------|
D|-0-0---3-0-5~-|-0-0---3-0-5~-|-0-0---3-0-5~-|-0-0---3------|----------------|-----------------|


| /  slide up
| ~  vibrato
| e  eighth note
| *  let note ring
| () hold note
===============================================================================

            
            
Suggest correction
Creating personal tab
Creating personal tab
You can edit any tab online and save it as your Personal.

You can edit, replace or remove any tab part or add personal notes – all changes will be seen only by you.

Personal tabs can be accessed anytime from any device, even offline.
Learn more »
Give kudos to tab author, rate the tab!
1 2 3 4 5
comments
print report bad tab
guest
You may want to rate the tab now too:
select rating
Wanna post a correction for this tab? Suggest correction