Oops, an error
Loading. Please wait.

Milk Of Human Kindness Bass

by Clutch
457 views 1 this week
no commentswrite comment
1 2 3 4 5
x 4
add to favorites
launch autoscroll
font size
0
reset
guitar tuner
Autoscroll
slow
fast
+/-
esc
set tempo
stop
riff 1
G|----------------------------------|
D|----------------------------------|
A|----------------------------------|
E|--6-5-----5-----6-5---6-5---------|

riff 2 
G|------------------------------------|
D|------------------------------------|
A|------------------------------------|
E|--6-5-----5-----6-5---6-5---6-0-3-0-|

riff 3
G|----------------------------------------|
D|----------------------------------------|
A|----------------------------------------|
E|--3-5-----5-3---------3-5-----5-3-------|

riff 3 variation
G|----------------------------------------|
D|----------------------------------------|
A|----------------------------------------|
E|--3-5-----5-3-3-3-3-3-5-3-----5-3-3-3-3-|
Suggest correction
comments
print report bad tab
guest
You may want to rate the tab now too:
select rating
Wanna post a correction for this tab? Suggest correction