Oops, an error
Loading. Please wait.

Minotaur bass

by Clutch
88 views 1 this week
no commentswrite comment
1 2 3 4 5
2 more votes to show rating
add to favorites
×
Save as Personal and add changes to this tab that will be seen only by you. Learn more ›
×
You can save this tab as Personal to edit and correct it or add notes. All changes will be seen only by you. Learn more »
launch autoscroll
font size
0
reset
guitar tuner
edit
Autoscroll
slow
fast
+/-
esc
set tempo
stop
Author
-------------------------------------------------------------------------------
                             Minataur - Clutch
-------------------------------------------------------------------------------
Tabbed by: 790FX
Album: Strange Cousins From The West
Tuning: Standard

Pretty easy song. Bass is clearly to listen so you can figure out the right timing.

Intro 
            s s s s                    s s s s         
G|------------------------|--------------------------|
D|------------------------|--------------------------|
A|------------------------|--------------------------|
E|-2-------/6-6-6-6-2-----|-2---2-2-2-/6-6-6-6-2-----|

            s s s s                            
G|------------------------|--------------------------|
D|------------------------|--------------------------|
A|------------------------|--------------------------|
E|-2-------/6-6-6-6-2-----|-2---2-2-2-/6-------------|


Verse @ 0:19             
                                             s s s s    __
G|-------------------------|-------------------------|    \
D|-------------------------|-------------------------|     \
A|-------------------------|-3-3-3---3-3-3---3-2-0-2-|      \
E|-2---0-2---0-2---0-2---2-|-------------------------|       \
                                             s s s s          | x5  play verse stakkato
G|-------------------------|-------------------------|       /
D|-4-----------------------|-------------------------|      /
A|-------------------------|-3-3-3---3-3-3---3-2-0-2-|     /
E|-----0-2---0-2---0-2---2-|-------------------------|  __/
                               

Pre Chorus @ 1:05
                            s s s s     
G|----------------------------------|
D|-4--------------------------------|
A|--------------0---2---3---3-2-0-2-| x2
E|-2------0-2-----------------------|


Verse @ 1:14
            
                                             s s s s    __
G|-------------------------|-------------------------|    \
D|-------------------------|-------------------------|     \
A|-------------------------|-3-3-3---3-3-3---3-2-0-2-|      \
E|-2---0-2---0-2---0-2---2-|-------------------------|       \
                                             s s s s          | x2
G|-------------------------|-------------------------|       /
D|-4-----------------------|-------------------------|      /
A|-------------------------|-3-3-3---3-3-3---3-2-0-2-|     /
E|-----0-2---0-2---0-2---2-|-------------------------|  __/


Pre Chorus @ 1:33
                            s s s s                                      s s s s
G|----------------------------------|     G|-------------------------------------|
D|-4--------------------------------|     D|-4-----------------------------------|
A|--------------0---2---3---3-2-0-2-| x3  A|--------------0---2---3------3-2-0-2-|
E|-2------0-2-----------------------|     E|-2------0-2--------------------------|


Chorus @ 1:51 

     s s s s                 s s s s
G|------------------------|------------------------|----------------------|-------|
D|------------------------|------------------------|----------------------|-------| 
A|---5h7-5h7-7------------|---5h7-5h7-7----------5-|----------------------|-------| x2
E|-0-----------0-0-3b---0-|-0-----------0-0-3b-----|-0-----3---5b-0-R-----|-8---7-|

     s s s s
G|------------------------|
D|----------------------4-|
A|---5h7-5h7-7------------|
E|-0-----------0-0-3b---2-|



Repeat: 
        Intro section      @ 2:16  x1
        Verse section      @ 2:33  x4
        Pre Chorus section @ 3:10  x1
      

Chorus @ 3:29 

     s s s s                  s s s s
G|------------------------|------------------------|----------------------|-------|
D|------------------------|------------------------|----------------------|-------| 
A|---5h7-5h7-7------------|---5h7-5h7-7----------5-|----------------------|-------| x4
E|-0-----------0-0-3b---0-|-0-----------0-0-3b-----|-0-----3---5b-0-R-----|-8---7-|

     s s s s
G|------------------------|
D|----------------------4-|
A|---5h7-5h7-7------------|
E|-0-----------0-0-3b---2-|


Outro @ 4:15

            s s s s                    s s s s         
G|------------------------|--------------------------|
D|------------------------|--------------------------|
A|------------------------|--------------------------| x4
E|-2-------/6-6-6-6-2-----|-2---2-2-2-/6-6-6-6-2-----|



| /  slide up
| h  hammer-on
| s  sexteenth note
| b  bend note
===============================================================================
Suggest correction
Creating personal tab
Creating personal tab
You can edit any tab online and save it as your Personal.

You can edit, replace or remove any tab part or add personal notes – all changes will be seen only by you.

Personal tabs can be accessed anytime from any device, even offline.
Learn more »
Give kudos to tab author, rate the tab!
1 2 3 4 5
comments
print report bad tab
guest
You may want to rate the tab now too:
select rating
Wanna post a correction for this tab? Suggest correction