Oops, an error
Loading. Please wait.

Motherless Child bass

by Clutch
2,578 views 3 this week
no commentswrite comment
1 2 3 4 5
x 3
add to favorites
×
Save as Personal and add changes to this tab that will be seen only by you. Learn more ›
×
You can save this tab as Personal to edit and correct it or add notes. All changes will be seen only by you. Learn more »
launch autoscroll
font size
0
reset
guitar tuner
edit
Autoscroll
slow
fast
+/-
esc
set tempo
stop
Author
Difficulty
-----------------------------------------------------------------------------
                           Motherless Child - Clutch
-----------------------------------------------------------------------------

Tabbed By : Kyle Ostapuk
e-mail: kyle.ostapuk@gmail.com

Tuning: Standard

-----------------------------------------------------------------------------
This is my first attempt at publishing a tab, and my beginnings at learning the bass.
Any feedback is appreciated.  Rock!
-----------------------------------------------------------------------------

Verse 1: “Every last blind pulled...”     ===> End 1
Verse 2: “This place once had a name...”  ===> End 2
    G---------------------------------------------------------------|
    D---------------------------------------------------------------|
    A----8-10----------------10-------------8-10----------------10--|   x3
    E--10----------------10~--------------10----------------10~-----|
                           “Sometimes I feel just like a...”

End 1: “motherless child. Yeah.” x2  ===> Verse 2
End 2: “countryless man. Yeah.” x2   ===> Chorus
    G------------------------------------|
    D----------8-8-8h10----------8-8-88--|
    A----8-10*-------------8-10*---------|   x4
    E--10----------------10--------------|

Chorus: “My father tried to break me...”
    G------------------------------------|
    D------------------------------------|
    A----8-10*-------------8-10~---------|   x8
    E--10----------------10--------------|

Bridge 1:
    G------------------------------------|
    D--------------------------------12~-|
    A----8-10*---------------------------|  ===> Verse 3
    E--10--------------------------------|

Verse 3: “I once saw figures...”  ===> End 3
    G---------------------------------------------------------------|
    D---------------------------------------------------------------|
    A----8-10----------------10-------------8-10----------------10--|   x3
    E--10----------------10~--------------10----------------10~-----|
                           “Sometimes I feel just like a...”

End 3: “wondering dog.  Yeah.” x2
    G------------------------------------|
    D----------8-8-8h10----------8-8-88--|
    A----8-10*-------------8-10*---------|   x4
    E--10----------------10--------------|

Bridge 2:
    G------------------------------------|
    D----------3-3-3h5-----------3-3-33--|
    A----3-5*--------------3-5*----------|   x4
    E--5-----------------5---------------|

    G------------------------------------|
    D----------8-8-8h10----------8-8-88--|
    A----8-10*-------------8-10*---------|   x4
    E--10----------------10--------------|

Chorus: “My father tried to break me...”
    G------------------------------------|
    D------------------------------------|
    A----8-10*-------------8-10~---------|   x8
    E--10----------------10--------------|

Outro:
    G---------------------------------------------------------------|
    D---------------------------------------------------------------|
    A----8-10------------10h12p10-----------8-10------------10~-----|  x7
    E--10---------------------------------10------------------------|
                                                :Stop on 8th:

            
            
Suggest correction
Creating personal tab
Creating personal tab
You can edit any tab online and save it as your Personal.

You can edit, replace or remove any tab part or add personal notes – all changes will be seen only by you.

Personal tabs can be accessed anytime from any device, even offline.
Learn more »
Give kudos to tab author, rate the tab!
1 2 3 4 5
comments
print report bad tab
guest
You may want to rate the tab now too:
select rating
Wanna post a correction for this tab? Suggest correction