Oops, an error
Loading. Please wait.

Oregon tab

version 2
version 2

Whole song

by Clutch
690 views 3 this week
no commentswrite comment
1 2 3 4 5
3 more votes to show rating
add to favorites
×
Save as Personal and add changes to this tab that will be seen only by you. Learn more ›
×
You can save this tab as Personal to edit and correct it or add notes. All changes will be seen only by you. Learn more »
launch autoscroll
font size
0
reset
how to read this tab
guitar tuner
edit
Autoscroll
slow
fast
+/-
esc
set tempo
stop
Author
-------------------------------------------------------------------------------
                                Oregon - Clutch
-------------------------------------------------------------------------------


9.21.07
Tabbed by: Tyler Eibl
Email: Tyler420@gmail.com

Tuning: Standard


Verse


e|---------------------------------------------------------------------|
B|o--------------------------------------------------------------------|
G|---------------------------------------------------------------------|
D|---------------------------------------------------------------------|
A|o---7b-7-5-7-5---------------------7b-7-5-7-5------------------------|
E|---------------7-5--5-5-7---5-7-5-------------7-5--0-5-7--5-7-5------|


e|--------------------------------------------------------------------|
B|o-------------------------------------------------------------------|
G|--------------------------------------------------------------------|
D|--------------------------------------------------------------------|
A|o--7b-7-5-7-5---------------------7b-7-5-7-5------------------------|
E|---------------7-5--0-5-7--5-7-5--------------7-5--0-5-7--5-7-5-----|


e|---------------------------------------------------|
B|o------------8b----------------------8b------------|
G|----7-9-7-9-----9--7-9------7-9-7-9-----9--7-9-----|
D|-----------------------7-----------------------7---|
A|o--------------------------------------------------|
E|---------------------------------------------------|
  ..all i all i wonder


e|--------------------------------------------|
B|o-------------------------------------------|
G|--------------------------------------------|
D|----7-7------7-7------7-7------7-7----------|
A|o---5-5-9----5-5-9----5-5-9----5-5-9--------|
E|--------7--------7--------7--------7--------|


e|---------------------------------------------|
B|o--------------------------------------------|
G|---------------------------------------------|
D|---------------------9-7-7-7-----------------|
A|o--7-9-9-9--9-9-9-9--7-5-5-5--7-7-7-9--------|
E|---5-7-7-7--7-7-7-7-----------5-5-5-7--------|
..I fashion my crown


OREGON

Went out the back of Halifax
All the way to Virginia, Fairfax
It wasn't weird enough
So I went west to Oregon

All I, All I wonder
While I run
Is what's, is what's
Next on my agenda

I made a ruckus with a succubus
Before she knew I was amphibious
She threw her hands up and started to scream
"Man you look like your straight outta V."

All I, all I wonder
While I run
Is what's, is what's
Next on my agenda

(spoken)
And so it was that I, a wayward throwback to the Mesozoic, was enslaved as a circus
freak to entertain you drunken monkeys. But Fate still had her twisted sense of humor
and she granted me safe passage to sunny Florida, where for over the past 300 years
now I have been breeding with an unheard of efficiency. And soon my progeny will rise
up and say "Hail Draco, king of the dragon men!"

I fashion my crown from Quetzlcoatl's quills
Build my palace in the jungles of Brazil
In the summertime come my children
"For I hail Draco, king of dragon men!"
I fashion my crown from Quetzlcoatl's quills
Build my palace in the jungles of Brazil
In the summertime come my children
"For I hail Draco, king of dragon men!"

            
            
Suggest correction
Creating personal tab
Creating personal tab
You can edit any tab online and save it as your Personal.

You can edit, replace or remove any tab part or add personal notes – all changes will be seen only by you.

Personal tabs can be accessed anytime from any device, even offline.
Learn more »
Give kudos to tab author, rate the tab!
1 2 3 4 5
comments
print report bad tab
guest
You may want to rate the tab now too:
select rating
Wanna post a correction for this tab? Suggest correction