Oops, an error
Loading. Please wait.

Our Lady Of Electric Light bass

by Clutch
1,202 views 18 this week
1 commentread comment
1 2 3 4 5
x 5
add to favorites
×
Save as Personal and add changes to this tab that will be seen only by you. Learn more ›
×
You can save this tab as Personal to edit and correct it or add notes. All changes will be seen only by you. Learn more »
launch autoscroll
font size
0
reset
guitar tuner
edit
Autoscroll
slow
fast
+/-
esc
set tempo
stop
Author
Difficulty
Tempo = 98
Electric Bass

Intro

G |----------------------|----------------------|----------------------|
D |----------------------|----------------------|----------------------|
A |----------------------|----------------------|----------------------|
E |--5--------5-----3----|--5--------3--0--3----|--5--------5-----3----|

----------------------|
----------------------|
-----------2----------|
--5-----------3--0----|


Verse
----------------------|----------------------|----------------------|----------------------|
----------------------|----------------------|----------------------|----------------------|
----------------------|----------------------|----------------------|--------------0--2----|
--5--------5-----3----|--5--------3--0--3----|--5--------5-----3----|--5--------3----------|


"Have no fear the dark of night..." (Chorus)
-------|-------|----------------------|----------------------|
-------|-------|-----------7--5-------|----------------------|
--3----|-------|-----------------7----|--------------0--2----|
-------|--3----|--5-------------------|--5--------3----------|


-------|-------|----------------------|-------------|
-------|-------|--7--------7----------|--7----------|
--3----|-------|-----------------0----|-------------|
-------|--3----|----------------------|-------------|


1:58
----------------------|----------------------|----------------------|----------|
----------------------|----------------------|----------------------|----------|
-----------7----------|--7--------2----------|-----------7--7--5----|--7-------|
--0--------------0----|--------------3--2----|--0-------------------|-----3----|


----------------------|----------|----------------------|----------------------|
-----------7--7--5----|--7-------|-----------7--7--5----|--7-------------------|
--0-------------------|----------|--0-------------------|-----------2----------|
----------------------|-----3----|----------------------|--------------3--2----|

----------------------|----------------------|----------------------|----------|
----------------------|----------------------|----------------------|----------|
-----------7----------|--7--------2----------|-----------7--7--5----|--7-------|
--0--------------0----|--------------3--2----|--0-------------------|-----3----|

----------------------|----------|----------------------|------------|
-----------7--7--5----|--7-------|-----------7--7--5----|--7---------|
--0-------------------|----------|--0-------------------|------------|
----------------------|-----3----|----------------------|------------|


            
            
Suggest correction
Creating personal tab
Creating personal tab
You can edit any tab online and save it as your Personal.

You can edit, replace or remove any tab part or add personal notes – all changes will be seen only by you.

Personal tabs can be accessed anytime from any device, even offline.
Learn more »
comments
print report bad tab
1 comment total.
0 reply
790FX 736 Oct 08, 2015 11:00 AM

Great Tab, man. The notes are on point, but you could improve your structure.
Anyway, I was just about to tab that amazing song.

guest
You may want to rate the tab now too:
select rating
Wanna post a correction for this tab? Suggest correction