Oops, an error
Loading. Please wait.

Rapture Of Riddley Walker bass

by Clutch
130 views 6 this week
no commentswrite comment
1 2 3 4 5
3 more votes to show rating
add to favorites
×
Save as Personal and add changes to this tab that will be seen only by you. Learn more ›
×
You can save this tab as Personal to edit and correct it or add notes. All changes will be seen only by you. Learn more »
launch autoscroll
font size
0
reset
guitar tuner
edit
Autoscroll
slow
fast
+/-
esc
set tempo
stop
Author
Difficulty
-------------------------------------------------------------------------------
                      Rapture of Riddley Walker - Clutch
-------------------------------------------------------------------------------
Album: From Beale Street to Oblivion (2007)
Tabbed by: 790FX
Tuning: Standard

Pretty easy song. Tab nr.1 is partial a bit wrong. So this version might be right.
By the way the song is called "Rapture of Riddley Walker" - not "The Rapture...". ;) 
Bend just a bit and not to much. 


Verse @ 0:12

     R                     R
G|---------------------|---------------------|
D|---------------------|---------------------|
A|-----7-5~---5-7-5----|-----5-7~---5-7-5-7~-| x4
E|-7----------------5~-|-7-------------------|


Chorus #1 @ 0:37

G|----------------------|----------------------|
D|----------------------|----------------------|
A|-5b-----5-7-7b-5-7b-5-|-5b------------5b-----| x4
E|------7---------------|------7--5-5-7----7---|

           R
G|-----------------7-----7-----| 
D|-----------7--9--7-----7-----| Play the chords staccato.
A|-----7-5---5--7--7--7--7--7\-| If you don't like them, just play the root notes.
E|-7-5----------------0-----0--|


Repeat:
        Verse @ 1:13 x4


Chorus #2 @ 1:38 x1 

G|----------------------|----------------------|
D|----------------------|----------------------|
A|-5b-----5-7-7b-5-7b-5-|-5b------------5b-----| x4
E|------7---------------|------7--5-5-7----7---|

           R                 R                        R   R         R       R
G|-----------------|-----------------|     G|-----------------|-----------------|
D|-----------------|-----------------|     D|-----------------|-----------------|
A|-----7-5---------|-----7-5---------| x2  A|-----7-5---5---7-|---------7-5-----| x2
E|-7-5-------------|-7-5-------------|     E|-7-5-------------|-7-5-------------|


Solo @ 2:27

     R                     R
G|---------------------|---------------------|
D|---------------------|---------------------|
A|-----7-5~---5-7-5----|-----5-7~---5-7-5-7~-| x3
E|-7----------------5~-|-7-------------------|

     R                   e e e e   e   e e e e 
G|---------------------|-------------------------|
D|---------------------|-------------9-7---------|
A|-----7-5~---5-7-5----|-------5---------9-7-5---| The bass solo isn't final. :) 
E|-7----------------5~-|-7-5-7---7-7-----------7-|


Repeat:
        Verse             @ 2:51 x4
        Chorus #2 section @ 3:17 x1


| \  slide down
| ~  vibrato
| b  bend note
| R  rest
| e  eighth note
===============================================================================
Suggest correction
Creating personal tab
Creating personal tab
You can edit any tab online and save it as your Personal.

You can edit, replace or remove any tab part or add personal notes – all changes will be seen only by you.

Personal tabs can be accessed anytime from any device, even offline.
Learn more »
Give kudos to tab author, rate the tab!
1 2 3 4 5
comments
print report bad tab
guest
You may want to rate the tab now too:
select rating
Wanna post a correction for this tab? Suggest correction