Oops, an error
Loading. Please wait.

The Face bass

by Clutch
960 views 1 this week
no commentswrite comment
1 2 3 4 5
3 more votes to show rating
add to favorites
×
Save as Personal and add changes to this tab that will be seen only by you. Learn more ›
×
You can save this tab as Personal to edit and correct it or add notes. All changes will be seen only by you. Learn more »
launch autoscroll
font size
0
reset
guitar tuner
edit
Autoscroll
slow
fast
+/-
esc
set tempo
stop
Author
Difficulty
One of my favorite songs off of the Earth Rocker album.

Intro
     E  E.  S E  E.  S E  E.  S E  S  E.       It sounds as if he's actually
G|----------------------------------------|    playing the open E string,
D|----------------------------------------|    instead of what I wrote. Your
A|--7--7---7-7--7---7-7--7---7-7--7-10\---|    call, it's the same note,
E|----------------------------------------|    just up/down an octave.


  E  E.  S E  E.  S E  E.  S E  S E.  
--------------------------------------|
--------------------------------------|
--5--5---5-5--5---5-5--5---5-5--5-5---|
--------------------------------------|

  E  E.  S E  E.  S E  E.  S E  S E.  
--------------------------------------|
--------------------------------------|
--3--3---3-3--3---3-2--2---2-2--2-2---|
--------------------------------------|

  E  E.  S E  E.  S E  E.  S E  S E.   
--------------------------------------|
--------------------------------------|
--------------------------------------|
--0--0---0-0--0---0-0--0---0-0--0-0---|


"First they tell ya.." (Every other one)

  S E  S H        S E  S H         
----------------------------------|
----------------------------------|
----------------------------------|
--4-0--0----------4-0--0----------|

Last 4 do all

  S E  S E  S E  S E  S E  S E  S E  S E  
------------------------------------------|
------------------------------------------|
------------------------------------------|
--4-0--0----4-0--0----4-0--0----4-0--0----|


Chorus

  E  E.  S E  E.  S E  E.  S E  S  E. 
--------------------------------------|
--------------------------------------|
--7--7---7-7--7---7-7--7---7-7--7-10\-|
--------------------------------------|

                {DIFFERENT FROM INTRO}
                              ^ ^ ^
  E  E.  S E  E.  S E  E.  S E  E  E     
--------------------------------------|
--------------------------------------|
--5--5---5-5--5---5-5--5---5-5--5--4--|
--------------------------------------|

  E  E.  S E  E.  S E  E.  S E  S E.  
--------------------------------------|
--------------------------------------|
--3--3---3-3--3---3-2--2---2-2--2-2---|
--------------------------------------|

  E  E.  S E  E.  S E  E.  S E  S E.  
--------------------------------------|
--------------------------------------|
--------------------------------------|
--0--0---0-0--0---0-0--0---0-0--0-0---|


1:38

  W.                  H.           S S S S S S S S S S S S  
-------------------|---------------9-9-9-7-7-7-------------|
-------------------|---------------------------9-9-9-7-7-7-|
--7----------------|--L------------------------------------|
--0----------------|---------------------------------------|

Either on the A and D strings (There is video of the bassist playing it here)

  S S S S S S S S S S S S S S S S S S E.  S S S  
------------------------------------------------|
--5-----------5-----------5-----------7---7-5---|
----7-7-7-7-7---7-7-7-7-7---7-7-7-7-7---------7-|
------------------------------------------------|

Or just the E string for a bigger bass effect

  S S S S S S S S S S S S S S S S S S E.  S S S   
------------------------------------------------||
------------------------------------------------||
------------------------------------------------||
--3-0-0-0-0-0-3-0-0-0-0-0-3-0-0-0-0-0-5---5-3-0-||


Duration Legend
---------------
W - whole
H - half
Q - quarter
E - 8th
S - 16th
T - 32nd
X - 64th
. - note dotted
|-n-|  - n-tuplets


Tablature Legend
----------------
L - tied note
x - dead note
g - grace note
(n) - ghost note
h - hammer on
p - pull off
b - bend
S - shift slide
s - legato slidE
/ -  slide into from below or out of upwards
\ -  slide into from above or out of downwards

            
            
Suggest correction
Creating personal tab
Creating personal tab
You can edit any tab online and save it as your Personal.

You can edit, replace or remove any tab part or add personal notes – all changes will be seen only by you.

Personal tabs can be accessed anytime from any device, even offline.
Learn more »
Give kudos to tab author, rate the tab!
1 2 3 4 5
comments
print report bad tab
guest
You may want to rate the tab now too:
select rating
Wanna post a correction for this tab? Suggest correction