Oops, an error
Loading. Please wait.

The House That Peterbilt bass

by Clutch
865 views 1 this week
no commentswrite comment
1 2 3 4 5
x 3
add to favorites
×
Save as Personal and add changes to this tab that will be seen only by you. Learn more ›
×
You can save this tab as Personal to edit and correct it or add notes. All changes will be seen only by you. Learn more »
launch autoscroll
font size
0
reset
guitar tuner
edit
Autoscroll
slow
fast
+/-
esc
set tempo
stop
Difficulty
intermediate
Clutch:  The House that Peterbilt.
Bass Tab:
Tuning EADG
Intro/Chorus Riff
G |-------------------------------------------------------------------------|
D |-------------------------------------------------------------------------|
A |-------------------------------------------------------------------------|
E |3/5-5-5-5--5-5--5-5--5-5-5---1/3-3-3-3--3-3--3-2--2-2--2-2-2-------------|  ( x2)

Guitar only for 4 Bars...No Bass until lyrics start.
Verse Riff:
      When I talk talk......
G |------------------------------------------------|
D |------------------------------------------------|
A |----------1----------------1------------1-------|
E |--1---3------3-----1---3------3----1-3-3--------|

         I scare men.
G -----------------------------------------------|
D -----------------------------------------------|
A -----------1------------------3-1---1----------|
E ---1---3------3-----1--3--1-------3---3-2------|

         My my tire knockers......
G |------------------------------------------------|
D |------------------------------------------------|
A |----------1----------------1------------1-------|
E |--1---3------3-----1---3------3----1-3-3--------|

      Quite a lot yeah.
G|--------------------------------------|
D|--------------------------------------|
A|-------1-----1-----1------------------|
E|-1--3-----3-----3----3--2-2-2-2-------|

       Rolled along 40......
G |------------------------------------------------|
D |------------------------------------------------|
A |----------1----------------1------------1-------|
E |--1---3------3-----1---3------3----1-3-3--------|

      Released my cargo.....
G -----------------------------------------------|
D -----------------------------------------------|
A -----------1------------------3-1---1----------|
E ---1---3------3-----1--3--1-------3---3-2------|

      I always take.....
G |------------------------------------------------|
D |------------------------------------------------|
A |----------1----------------1------------1-------|
E |--1---3------3-----1---3------3----1-3-3--------|

     A maverick moonminer......
G|-------------------------------------|
D|-------------------------------------|
A|-------1-----1-----1------1----------|
E|-1--3-----3-----3----3-----3--2------|

       Hauled ass to Memphis.....
G |------------------------------------------------|
D |------------------------------------------------|
A |----------1----------------1------------1-------|
E |--1---3------3-----1---3------3----1-3-3--------|

      He told me his dreams.....
G -----------------------------------------------|
D -----------------------------------------------|
A -----------1------------------3-1---1----------|
E ---1---3------3-----1--3--1-------3---3-2------|

      Steve McQueen's got nothin'.....
G |------------------------------------------------|
D |------------------------------------------------|
A |----------1----------------1------------1-------|
E |--1---3------3-----1---3------3----1-3-3--------|

     I take you back west.....
G|-------------------------------------|
D|-------------------------------------|
A|-------1-----1-----1------1----------|
E|-1--3-----3-----3----3-----3--2------|

Chorus:
     ( If) You want someone to talk to?,,,,,
     I've seen it all.....
G |-------------------------------------------------------------------------|
D |-------------------------------------------------------------------------|
A |-------------------------------------------------------------------------|
E |3/5-5-5-5--5-5--5-5--5-5-5---1/3-3-3-3--3-3--3-2--2-2--2-2-2-------------|  ( x2)


     High time honey.....
G |------------------------------------------------|
D |------------------------------------------------|
A |----------1----------------1------------1-------|
E |--1---3------3-----1---3------3----1-3-3--------|

         I'm back again yeah.
G -----------------------------------------------|
D -----------------------------------------------|
A -----------1------------------3-1---1----------|
E ---1---3------3-----1--3--1-------3---3-2------|

         Roll roll down......
G |------------------------------------------------|
D |------------------------------------------------|
A |----------1----------------1------------1-------|
E |--1---3------3-----1---3------3----1-3-3--------|

     Yeah.
G|--------------------------------------|
D|--------------------------------------|
A|-------1-----1-----1------1-----------|
E|-1--3-----3-----3----3----3-2---------|

      I never ever sweated.....
G |------------------------------------------------|
D |------------------------------------------------|
A |----------1----------------1------------1-------|
E |--1---3------3-----1---3------3----1-3-3--------|

              Nevertheless.....
G -----------------------------------------------|
D -----------------------------------------------|
A -----------1------------------3-1---1----------|
E ---1---3------3-----1--3--1-------3---3-2------|

      I always pay.....
G |------------------------------------------------|
D |------------------------------------------------|
A |----------1----------------1------------1-------|
E |--1---3------3-----1---3------3----1-3-3--------|

     So sit your ass down....
G|-------------------------------------|
D|-------------------------------------|
A|-------1-----1-----1------1----------|
E|-1--3-----3-----3----3-----3--2------|


Chorus:
     ( If) You want someone to talk to?,,,,,
      I've seen it all....
G |-------------------------------------------------------------------------|
D |-------------------------------------------------------------------------|
A |-------------------------------------------------------------------------|
E |3/5-5-5-5--5-5--5-5--5-5-5---1/3-3-3-3--3-3--3-2--2-2--2-2-2-------------|  ( x2)

Bridge
   Main Part
G |--------------------------------|
D |--------------------------------|
A |--------------------------------|
E |--1/3-3-3-3--1/3-3-3-3/6|-------| x3

   Main Part with Turnaround
G |-------------------------------------|
D |-------------------------------------|
A |-------------------------------------|
E |--1/3-3-3-3--1/3-3-3--6--5--4--------|

       A preacher, a trucker.....
       A holy rollin'.....
       A preacher, a trucker....
G |---------------------------------|
D |---------------------------------|
A |---------------------------------|
E |--1/3-3-3-3--1/3-3-3-3-3--6------| x3

        A holy rollin'
G |--------------------------------------|
D |--------------------------------------|
A |--------------------------------------|
E |--1/3-3-3-3--1/3-3-3---6--5--4--------|

G |--------------------------------|
D |--------------------------------|
A |--------------------------------|
E |--1/3-3-3-3--1/3-3---3----6-----| x3

 G |-------------------------------------|
D |--------------------------------------|
A |--------------------------------------|
E |--1/3-3-3-3--1/3-3----6--5--4---------|

Verse riff
    Guitar only for first part.  4 note bass fill
G |-----------------------------------------=-------|
D |-------------------------------------------------|
A |-----------------------------------------1-------|
E |-------------------------------------1-3--3------|


   Guitar only for first part.  3 note bass fill
G|---------------------------------------|
D|---------------------------------------|
A|--------------------------1------------|
E|----------------------------3-2--------|


    Guitar solo
G |------------------------------------------------|
D |------------------------------------------------|
A |----------1----------------1------------1-------|
E |--1---3------3-----1---3------3----1-3-3--------|


G -----------------------------------------------|
D -----------------------------------------------|
A -----------1------------------3-1---1----------|
E ---1---3------3-----1--3--1-------3---3-2------|

G |------------------------------------------------|
D |------------------------------------------------|
A |----------1----------------1------------1-------|
E |--1---3------3-----1---3------3----1-3-3--------|


G|-------------------------------------|
D|-------------------------------------|
A|-------1-----1-----1------1----------|
E|-1--3-----3-----3----3-----3--2------|


G |------------------------------------------------|
D |------------------------------------------------|
A |----------1----------------1------------1-------|
E |--1---3------3-----1---3------3----1-3-3--------|

G -----------------------------------------------|
D -----------------------------------------------|
A -----------1------------------3-1---1----------|
E ---1---3------3-----1--3--1-------3---3-2------|

G |------------------------------------------------|
D |------------------------------------------------|
A |----------1----------------1------------1-------|
E |--1---3------3-----1---3------3----1-3-3--------|

G|--------------------------------------|
D|--------------------------------------|
A|-------1-----1-----1------------------|
E|-1--3-----3-----3----3--2-2-2-2-------|End.


Lyrics:
When I talk talk on the C.B. yeah I scare men.
 My my tire knockers rock the parking lot quite a lot yeah.
 Rolled along 40 and roared down 10,
 Released my cargo around the Big Bend.
 I always take my time,
 A maverick moonminer sipping sunshine.
 Hauled ass to Memphis, I spoke to the Pharoah.
 He told me his dreams, I counted the sparrows.
 Steve McQueen's got nothing on me,
 I take you back west of Pleiades.
 If you want someone to talk to,
 Well I'm your man.
 I've seen it all,
 And I know where you live.
 High time honey, hell yeah, watcha know, I'm back again, yeah.
 Roll Roll down highways with a vengeance, yeah.
 I never ever sweated for the fortune and fame game.
 Nevertheless, I'm flying down the left lane.
 I always pay my dues,
 So sit your ass down, and I'll show you how they used to.
 If you want someone to talk to,
 Well I'm your man.
 I've seen it all,
 And I know where you live.
 A preacher, a trucker, a highroller,
 A holy roller preacher rolling trucker.
 A preacher, a trucker, a highroller,
 A holy roller preacher rolling trucker.
Suggest correction
Creating personal tab
Creating personal tab
You can edit any tab online and save it as your Personal.

You can edit, replace or remove any tab part or add personal notes – all changes will be seen only by you.

Personal tabs can be accessed anytime from any device, even offline.
Learn more »
Give kudos to tab author, rate the tab!
1 2 3 4 5
comments
print report bad tab
guest
Wanna post a correction for this tab? Suggest correction