Oops, an error
Loading. Please wait.

The Mob Goes Wild Bass Tab

version 2
version 2

Whole song

Interactive

872 views 12 this week
no commentswrite comment
1 2 3 4 5
please rate
add to favorites
launch autoscroll
font size
0
reset
guitar tuner
Autoscroll
slow
fast
+/-
esc
set tempo
stop
Help us to improve Ultimate-Guitar.com Take our survey!
×
Contributor
Difficulty
intermediate
-------------------------------------------------------------------------------
                        The Mob Goes Wild - Clutch
-------------------------------------------------------------------------------

Tabbed By : whydopen

Tuning: Standard


Intro

G|--------------------------------------------------------------------------|
D|--------------------------------------------------------------------------|
A|----5/7-77---------------------------------------5/7-77-------------------|
E|--------------------------------------------------------------------------|x4
      Please allow me to adjust my pants           So that I may dance

*Let the last note of the intro ring into the verse

Verse

G|--------------------------------------------------------------------------|
D|--------------------------------5---------------------------5-------------|
A|------5---------7---------5-------7---5-------7-------5-------7-----------|
E|--------0-0-0-----0-0-0-----0-0---------0-0-0---0-0-0---0-0---------------|
        Give disease so that the swine will marry and propagate lies

G|--------------------------------------------------------------------------|
D|--------------------------------5-----------------------------------------|
A|------5---------7---------5-------7---5-------7---------------------------|
E|--------0-0-0-----0-0-0-----0-0---------0-0-0---0-0-0-3---5-55------------|

*Repeat Verse twice before Chorus

Chorus

G|--------------------------------------------------------------------------|
D|-----------5--------------------------------------------------------------|
A|-------5/7---7-5----------------------------------------------------------|
E|-----0-------------7-5\3-0------------------------------------------------|x4
        Streets on fire. The mob goes wild
G|--------------------------------------------------------------------------|
D|--------------------------------------------------------------------------|
A|--------------------------------------------------------------------------|
E|------00-0-0-0-0-0-0/3-33-33-33-5-55-55-55--------------------------------|x4
        21 guns a box made of pine

*Repeat 2nd part of the Verse, THEN Repeat the Verse twice before repeating Chorus


Break (Intro)

*Play after second repetition of Chorus

G|--------------------------------------------------------------------------|
D|--------------------------------------------------------------------------|
A|--------------------------------------------------------------------------|
E|----t7t7t7t7t7t7t7t7-10-7--7--10-7--10--10--7-----------------------------|

*t= triplet

Solo

G|--------------------------------------------------------------------------|
D|----------5---------------------------------------------------------------|
A|------5/7---7-5-----------------------------------------------------------|
E|---0--------------7-5\3-0-------------------------------------------------|x8

Break (Outro)

G|--------------------------------------------------------------------------|
D|--------------------------------------------------------------------------|
A|--------------------------------------------------------------------------|
E|------t7t7t7t7t7t7t7t7t9t9t10t10t11t11t11t11t11-12\0----------------------|

*t= triplet

*Note: There is a palm-muted lead going into the repetition of the Chorus. You can do 
this from anywhere and it gives you major badass points for doing so, especially when you 
are jamming to the song either with your band, friends, or to the stereo.

*Repeat second part of Chorus



     Outro

G|--------------------------------------------------------------------------|
D|--------------------------------------------------------------------------|
A|--------------------------------------------------------------------------|
E|---7-7-77-7-7-77-7-7-77-7-7-7--7--6--5--4---------------------------------|

*Let last note ring out.


Enjoy, my fellow man, the glory and wonder of the badassery that is Clutch. P34c3!

| /  slide up
| \  slide down
| h  hammer-on
| p  pull-off
| ~  vibrato
| +  harmonic
| x  Mute note
===============================================================================
comments
We did not receive enough feedback on this tab! Please rate:
print report bad tab
1 2 3 4 5
I want to post or [tab]
guest
You may want to rate the tab now too:
select rating
Please do not post tabs as comments. Select "correction" instead!