Oops, an error
Loading. Please wait.

The Regulator bass

version 1
version 1

Whole song

Interactive

by Clutch
8,725 views 21 this week
1 commentread comment
1 2 3 4 5
x 4
add to favorites
×
Save as Personal and add changes to this tab that will be seen only by you. Learn more ›
×
You can save this tab as Personal to edit and correct it or add notes. All changes will be seen only by you. Learn more »
launch autoscroll
font size
0
reset
guitar tuner
edit
Autoscroll
slow
fast
+/-
esc
set tempo
stop
I made this for a fellow on Talkbass so why not share it with the world
If you're on Talkbass feel free to hit me up.  Diabolusinmusic
Clutch - The Regulator from the album Blast Tyrant
As far as I am concerned this tab is %100 correct so I didn't bother to include my e-mail

 Bass comes in @ 1:47
G|--------|----------|
D|--------|----------|
A|--------|-3--------|
D|0~~~~ --|----5--0--|

Pre-Chorus
G|----------|--------------|----------------|
D|----------|--------------|----------------|
A|5-8-5-3-5-|--------------|3-5--5---3-5--5-|
D|----------|5-4-3-0-3-0-3-|----------------|

Chorus
G|----------------------|--------------------------|---------------|
D|---------10---12-10---|---------10----12-10------|---------------|
A|---10/12---12------12-|----10/12---12-------12-10|3-5--5--3-5--5-|
D|10--------------------|10------------------------|---------------|

Verse after chorus
G|-----------|--------------|
D|-----------|--------------|
A|-----------|-3------------|
D|0---3---5--|----5----0----|

Outro (about 5 mins)
G|-----------------------|
D|-----------------------|
A|3-5---5----------------|
D|----------6666--55-3-0-|



The parts go in order, until the 2nd verse goes back into the pre-chorus, I think you 
can figure it out. I included the last repeat of the last riff before the outro just so 
you can see it a little easier.

            
            
Suggest correction
Creating personal tab
Creating personal tab
You can edit any tab online and save it as your Personal.

You can edit, replace or remove any tab part or add personal notes – all changes will be seen only by you.

Personal tabs can be accessed anytime from any device, even offline.
Learn more »
comments
print report bad tab
1 comment total.
0 reply
Munch420 10 Apr 30, 2012 12:10 PM

Great job on the tab dude helped me out alot but theres a few things u missed i think.

In the pre chorus there is no 5th leading in to it i think they just go straight to the 8th fret.
G|----------|--------------|------------------|
D|----------|--------------|------------------|
A|-8-5--3-5-|--------------|-3-5--5---3-5--5--|
D|----------|5-4-3-0-3-0-3-|------------------|

Then the other thing i found was that in the chorus he roots with the open A string rather then the 10th on the low D.

Chorus
G|-----------------------------|
D|---------10---10h12-12-10----|
A|-0--10h12---12------------12-|
D|-----------------------------|

But other then those corrections its dead on, nice job!!

guest
Wanna post a correction for this tab? Suggest correction