Oops, an error
Loading. Please wait.

Tight Like That tab

by Clutch
7,733 views 12 this week
2 commentsread comments
1 2 3 4 5
x 5
add to favorites
×
Save as Personal and add changes to this tab that will be seen only by you. Learn more ›
×
You can save this tab as Personal to edit and correct it or add notes. All changes will be seen only by you. Learn more »
launch autoscroll
font size
0
reset
how to read this tab
guitar tuner
edit
Autoscroll
slow
fast
+/-
esc
set tempo
stop
#----------------------------------PLEASE NOTE---------------------------------#
#This file is the author's own work and represents their interpretation of the #
#song. You may only use this file for private study, scholarship, or research. #
#------------------------------------------------------------------------------#
#
From: Burning.Inside@f929.n273.z1.fidonet.org (Burning Inside)
Date: 16 Jan 96 16:41:50 -0500
Subject: TAB: "Tight Like That" by Clutch

Tight Like That         by Clutch
                        from the album "Clutch"
                        words and music by Tim Sult, Dan Maines,
                                Neil Fallon, and Jean-Paul Gaster
                        tabbed by Tom Mallon

Note: A great deal of this song is actually played by the bass and the organ,
      not the guitar. I tabbed those parts out for guitar and indicated
      what is what.

Main Verse (Notes on E string are bass, other notes are organ)
E |---------------------------------|
B |--------3------------------------|
G |.-------------3-2-0-------------.|
D |.---------------------2---------.|
A |---------------------------------|
E |---0-------------------------3^--|

Prechorus (We'll call this Guitar One. This part is also used in the Chorus.)
E |-------------------------------------------------|
B |-------------------------------------------------|
G |.-----------------------------------------------.|
D |.--5^----2----0h2--2-2---0h2-2--0h2-------------.|
A |-------------------------------------2--0--------|
E |-------------------------------------------3~~~--|

Prechorus (We'll call this Guitar Two. It is actually bass, but it's louder.)
E |--------------------------------------|
B |--------------------------------------|
G |.------------------------------------.|
D |.------0h2-------0h2-------0h2-------.|
A |--------------------------------------|
E |---0---------0---------0---------3^---|

Prechorus Ending (bass and guitar)
E ----------------------------------------------------------------|
B ----------------------------------------------------------------|
G ----------------------------------------------------------------|
D ----2--0--------------------------------------------------------|
A ----------2--0--------------------------------------------------|
E ----------------3^---0------------------------------------------|

Chorus (This is actually bass. Another guitar plays Guitar One from the
prechorus section. On the first time you play it, end on that E note. On
the second, end on the G note, and then repeat like that.)
E |-----------------------------------|---|----------------------|
B |-----------------------------------|---|----------------------|
G |-----------------------------------|---|----------------------|
D |-------0h2-------0h2-------0h2---0-|-2-|----------------------|
A |-----------------------------------|---|----------------------|
E |---0---------0---------0-----------|---|---3------------------|

Final Verse (Guitar and Bass)
E |------------------------------------|
B |------------------------------------|
G |.------------3-2-0-----------------.|
D |.------0h2-----------0h2-2--0h2-2--.|
A |------------------------------------|
E |---0--------------------------------|

--
 | Fidonet:  Burning Inside 1:273/929
 | Internet: Burning.Inside@f929.n273.z1.fidonet.org
 |  Standard disclaimer: The views of this user are strictly his own.
 |  -=-=> (This address will be INVALID after March 1, 1996) <=-=-

            
            
Suggest correction
Creating personal tab
Creating personal tab
You can edit any tab online and save it as your Personal.

You can edit, replace or remove any tab part or add personal notes – all changes will be seen only by you.

Personal tabs can be accessed anytime from any device, even offline.
Learn more »
comments
print report bad tab
2 comments total.
0 reply
joemredwine75 10 Nov 29, 2015 10:05 AM

bar the first and second string on the third fret to the g on the first riff, last note to the first riff. its a chord there not just one note

0 reply
joemredwine75 10 Nov 29, 2015 10:07 AM

E |-----------------------------3---|
B |--------3--------------------3---|
G |.-------------3-2-0-------------.|
D |.---------------------2---------.|
A |---------------------------------|
E |---0-------------------------3^--|

small correction but otherwise not bad

guest
Wanna post a correction for this tab? Suggest correction