Oops, an error
Loading. Please wait.

Unto The Breach bass

version 1
version 1

Whole song

Interactive

by Clutch
989 views 3 this week
no commentswrite comment
1 2 3 4 5
3 more votes to show rating
add to favorites
×
Save as Personal and add changes to this tab that will be seen only by you. Learn more ›
×
You can save this tab as Personal to edit and correct it or add notes. All changes will be seen only by you. Learn more »
launch autoscroll
font size
0
reset
guitar tuner
edit
Autoscroll
slow
fast
+/-
esc
set tempo
stop
Author
Difficulty
From the "Earth Rocker" album. The intro can be hard to pull off on bass (at least while 
standing) so if you want to you can change the 10 (D) and 8 (C) on the E string to the 
5th and 3rd fret on the A string.


Intro

     S S S S  S S S S S S S S S S S S    W
G||-----------------------------------|-------------------|
D||-----------------------------------|-------------------|
A||-----------------------------------|-------------------|
E||--6-8-8-6-10-6-8-6-4-6-6-4-8-4-6-4-|--3----------------|

  E  E  E  E  E  E  E  E
--------------------------|
--------------------------|
--------------------------|
--3--3--3--3--3--3--3--3--|


Verse

  E.  S S S Q    E  E  S S    E.  S S S Q    E  E  E
---------------------------|--------------------------|
---------------------------|--------------------------|
---------------------------|--------------------------|
--3---3-5-3-6----3--6--3-3-|--3---3-6-3-6----3--6--6--|

  E.  S S S Q    E  E  E     E.  S S S Q    E  E  E
--------------------------|--------------------------|
--------------------------|--------------------------|
--------------------------|--------------------------|
------3-5-3-6----3--6--3--|--3---3-6-3-6----3--6--6--|


Chorus

  S S S S S S S S S S S S S S S S    S S S S S S S S S S S S S S S S
----------------------------------|----------------------------------|
----------------------------------|----------------------------------|
--5-5-5-5-5-5-5-5-5-5-5-5-5-5-5-5-|--4-4-4-4-4-4-4-4-4-4-4-4-4-4-4-4-|
----------------------------------|----------------------------------|


  S S S S S S S S S S S S S S S S
----------------------------------|
--3-5-5-5-5-5-5-5-5-5-3---3-------|
------------------------5---5-3-5-|
----------------------------------|


Break (Not 100% sure, should be at least some variation of this)

  S S H.           E
----0-L------------L--||
--5---L------------L--||
----------------------||
----------------------||




Duration Legend
---------------
W - whole
H - half
Q - quarter
E - 8th
S - 16th
T - 32nd
X - 64th
. - note dotted
|-n-|  - n-tuplets


Tablature Legend
----------------
L - tied note
x - dead note
g - grace note
(n) - ghost note
h - hammer on
p - pull off
/ -  slide into from below or out of upwards
\ -  slide into from above or out of downwards

            
            
Suggest correction
Creating personal tab
Creating personal tab
You can edit any tab online and save it as your Personal.

You can edit, replace or remove any tab part or add personal notes – all changes will be seen only by you.

Personal tabs can be accessed anytime from any device, even offline.
Learn more »
Give kudos to tab author, rate the tab!
1 2 3 4 5
comments
print report bad tab
guest
You may want to rate the tab now too:
select rating
Wanna post a correction for this tab? Suggest correction