Oops, an error
Loading. Please wait.
We have an official Loco tab made by UG professional guitarists. Check out the tab »
×
1,322 views 3 this week
4 commentsread comments
1 2 3 4 5
x 3
add to favorites
×
Save as Personal and add changes to this tab that will be seen only by you. Learn more ›
×
You can save this tab as Personal to edit and correct it or add notes. All changes will be seen only by you. Learn more »
launch autoscroll
font size
0
reset
how to read this tab
guitar tuner
edit
Autoscroll
slow
fast
+/-
esc
set tempo
stop
Author
Difficulty
 This song is in Drop C (CGCFAD) because I can't get my guitar to whatever Coal Chamber 
to play in. Enjoy.

INTRO:


    |-------------------------------------------------------|
    |--------3--3--3--3--3---------3--3--3--3--3------------|
    |--6-6-6--6--6--6--6-----5-5-5--5--5--5--5--------------|
    |-------------------------------------------------------|
    |-------------------------------------------------------|
    |-------------------------------------------------------|


FILL:

    |-----|
    |-----|
    |-----|
    |--0--|
    |--0--|
    |--0--|


PRE-VERSE:


    |------------------------------------------------------------|
    |------------------------------------------------------------|
    |------------------------------------------------------------|
    |-0-1-0-1-0-1-0-1-3-2-0-1-0-1-0-1-0-1-6-5--0-0-0-3-0-0-0-6-5-|
    |-0-1-0-1-0-1-0-1-3-2-0-1-0-1-0-1-0-1-6-5--0-0-0-3-0-0-0-6-5-|
    |-0-1-0-1-0-1-0-1-3-2-0-1-0-1-0-1-0-1-6-5--0-0-0-3-0-0-0-6-5-|


VERSE:


    |--------------------------|
    |--------------------------|
    |--------------------------|
    |-0------------0-1-0-1-0-1-|
    |-0------------0-1-0-1-0-1-|
    |-0------------0-1-0-1-0-1-|


CHORUS 1:


    |--------------|
    |--------------|
    |--------------|
    |-1-1--1-1-1-1-|
    |-1-1--1-1-1-1-|
    |-1-1--1-1-1-1-|


CHORUS 2:


    |--------------|
    |--------------|
    |--------------|
    |-0-0--0-0-0-0-|
    |-0-0--0-0-0-0-|
    |-0-0--0-0-0-0-|


INTERLUDE 1:


    |-----------------|
    |-----------------|
    |-----------------|
    |-0-0-1-2-0-0-1-2-|
    |-0-0-1-2-0-0-1-2-|
    |-0-0-1-2-0-0-1-2-|


INTERLUDE 2:


    |---|
    |-3-|
    |-6-|       Double-Pick this section.
    |-0-|
    |---|
    |---|


Story:

Intro (X4)
Fill
Pre-Verse (X4)
Verse (X2)
Chorus 1 (X5)
Chorus 2 (x5)
Fill
Pre-Verse (X2)
Verse (X2)
Chorus 1 (x5)
Chorus 2 (X5)
Fill
Interlude 1 (X4)
Interlude 2
Intro (X2)
Fill
Pre-Verse (X2)
Verse (X2)
Chorus 1 (X5)
Chorus 2 (X5)
Fill
Interlude 1

Please rate, as this is my first tab. ROCK ON!!

            
            
Suggest correction
Creating personal tab
Creating personal tab
You can edit any tab online and save it as your Personal.

You can edit, replace or remove any tab part or add personal notes – all changes will be seen only by you.

Personal tabs can be accessed anytime from any device, even offline.
Learn more »
Give kudos to tab author, rate the tab!
1 2 3 4 5
comments
print report bad tab
4 comments total. Showing first comments.
0 reply
masterometal666 81 Mar 22, 2007 05:56 PM

it's only a step further down on the guitar. what do you mean you can't get to it? I could understand if it was a ridiculously high tuning, but it's not even close. (B F# B E G# C#) = Drop B. Just so you know, it goes lower. I wrote a song in drop G just for fun. It wasn't great, but that's not the point. Because of the tuning your tab is automatically wrong, unless I were to transpose it, but it might not come out right.

0 reply
l33-xero 73 Mar 23, 2007 02:14 PM

yeah i know. my strings are a bit crap but Drop G?! that must have bin fun. Besides i thought coal chamber played in Drop A... ah well. thanks for letting me know!

0 reply
GHOST_OF_WAR 52 Apr 21, 2008 10:45 AM

ok how do you drop b without a tuning device? help would be appreciated

guest
You may want to rate the tab now too:
select rating
Wanna post a correction for this tab? Suggest correction