Oops, an error
Loading. Please wait.

Untrue tab

version 1
version 1

Whole song

Interactive

708 views 1 this week
no commentswrite comment
1 2 3 4 5
3 more votes to show rating
add to favorites
×
Save as Personal and add changes to this tab that will be seen only by you. Learn more ›
×
You can save this tab as Personal to edit and correct it or add notes. All changes will be seen only by you. Learn more »
launch autoscroll
font size
0
reset
how to read this tab
guitar tuner
edit
Autoscroll
slow
fast
+/-
esc
set tempo
stop
Author
Unregistered
T1: Jason Stepnoski, steppy666@aol.com, Coal Chamber, Untrue, September
99

S1: Tuning: B E A D G B


[Intro]

B|-----------------------------------|
G|-----------------------------------|
D|-------1--2----5-4-1---------------|
A|-----------------------------------|
E|-----------------------------------|      
B|-----------------------------------|(x4)

[Chorus]

B|------------------------|
G|------------------------|
D|------------------------|
A|----2--3-------6--5--2--|
E|----2--3-------6--5--2--|
B|----0--1-------4--3--0--|(same rhythmn as intro)                


[Verse]

B|----------------------------------------|
G|----------------------------------------|
D|--1-2----5---2--1-----------------------|
A|----------------------------------------|
E|----------------------------------------|
B|----------------------------------------|(x8)

  Then end with
B|----------|
G|----------|
D|----------|
A|----2-----|
E|----2-----|
B|----0-----|


i've been here
waiting anticipating
coping with tears
where have you been?

you've been untrue
i've seen it before and i see it again
you've been untrue
i've seen it before and i see it again
you've been untrue
i've seen it before and i see it again
you've been untrue
i've seen it before and i see it again

it's quite clear now
your phone rang all night
i waited here
waiting anticipating
coping with tears
where have you been?

you've been untrue
i've seen it before and i see it again
you've been untrue
i've seen it before and i see it again
you've been untrue
i've seen it before and i see it again
you've been untrue
i've seen it before and i see it again

you can't stop me
you know who i am
this justifies
now just what i am
you crucify
won't lay by my side
and now you'll need me
until i die

guess what i'm dead

you've been untrue
i've seen it before and i see it again
you've been untrue
i've seen it before and i see it again
you've been untrue
i've seen it before and i see it again
you've been untrue
i've seen it before and i see it again

you can't stop me
you know who i am
this justifies
now just what i am
you crucify
won't lay by my side
and now you'll need me
until i die

i'm dead

            
            
Suggest correction
Creating personal tab
Creating personal tab
You can edit any tab online and save it as your Personal.

You can edit, replace or remove any tab part or add personal notes – all changes will be seen only by you.

Personal tabs can be accessed anytime from any device, even offline.
Learn more »
Give kudos to tab author, rate the tab!
1 2 3 4 5
comments
print report bad tab
guest
Wanna post a correction for this tab? Suggest correction