Oops, an error
Loading. Please wait.

Prophet Story tab

by Cobi
364 views 18 this week
no commentswrite comment
1 2 3 4 5
2 more votes to show rating
add to favorites
×
Save as Personal and add changes to this tab that will be seen only by you. Learn more ›
×
You can save this tab as Personal to edit and correct it or add notes. All changes will be seen only by you. Learn more »
launch autoscroll
font size
0
reset
how to read this tab
guitar tuner
edit
Autoscroll
slow
fast
+/-
esc
set tempo
stop
D-minor tuning

[Intro]
d|-----0----------0----------0---------0---------0---------0-------0-------0-|
A|------0----------0----------0---------0---------0---------0-------0-------0|
F|---------------------------------------------------------------------------|
D|---------------------------------------------------------------------------|
A|---------------------------------------------------------------------------|
D|---0---------0---------0---------0---------0---------0---------0-------0---|

d|------0----------0---------0-----------------0--------0--------0-------0---|
A|--------0----------0---------0-----------------0---------0-------0---------|
F|-------------------------------------------------------------------------3-|
D|---------------------------------------------------------------------------|
A|---------------------------------------------------------------------------|
D|---0----------2---------3--------5---10---7---------5--------3------2------|

[Verse] x2
d|-------0---------0---------0------------------0--------0---------0------0--|
A|--------0---------0---------0------------------0--------0---------0--------|
F|--------------------------------------------------------------------------3|
D|---------------------------------------------------------------------------|
A|---------------------------------------------------------------------------|
D|---0---------2---------3---------5---10---7---------5---------3------2-----|

[Pre-Chorus]
d|---------10--------10-----------10----------10--------------12-----------12|
A|------8--------8------------8-----------8-------------10-----------10------|
F|----9---9--------9--------9---9-----------9--------11----11-----------11---|
D|---------------------------------------------------------------------------|
A|---------------------------------------------------------------------------|
D|---8---------8---------8------------8-----------10--------------10---------|

d|---------------12-----------12----------10--------10---------10-------10---|
A|---------10-----------10------------8---------8-----------8-------8--------|
F|------11----11-----------11-------9---9---------9-------9---9-------9------|
D|---------------------------------------------------------------------------|
A|---------------------------------------------------------------------------|
D|---10--------------10-----------8-----------8---------8---------8----------|

d|---------------12-----------12-----------------0---------------------------|
A|---------10-----------10----------8---8----7-------------------------------|
F|------11----11-----------11---------9--------8-----------------------------|
D|---------------------------------------------------------------------------|
A|---------------------------------------------------------------------------|
D|---10--------------10-----------8--------7---------------------------------|

[Chorus] x2 (Second time without hammer-on)
d|------0----------0---------0------------------0---------0---------0--------|
A|-------0----------0---------0------------------0---------0---------0-------|
F|---------------------------------------------------------------------------|
D|---------------------------------------------------------------------------|
A|---------------------------------------------------------------------------|
D|---0---------2---------3---------5---10---7---------5---------3------------|

d|---------------------------------------------------------------------------|
A|---------------------------------------------------------------------------|
F|---------------------------------------------------------------------------|
D|---------------------------------------------------------------------------|
A|------3h5------------------------------------------------------------------|
D|---2-----------------------------------------------------------------------|

[Interlude]
d|-----0----------0----------0---------0---------0---------0-------0-------0-|
A|------0----------0----------0---------0---------0---------0-------0-------0|
F|---------------------------------------------------------------------------|
D|---------------------------------------------------------------------------|
A|---------------------------------------------------------------------------|
D|---0---------0---------0---------0---------0---------0---------0-------0---|

[Verse] x2
d|-------0---------0---------0------------------0--------0---------0------0--|
A|--------0---------0---------0------------------0--------0---------0--------|
F|--------------------------------------------------------------------------3|
D|---------------------------------------------------------------------------|
A|---------------------------------------------------------------------------|
D|---0---------2---------3---------5---10---7---------5---------3------2-----|

[Pre-Chorus]
d|---------10--------10-----------10----------10--------------12-----------12|
A|------8--------8------------8-----------8-------------10-----------10------|
F|----9---9--------9--------9---9-----------9--------11----11-----------11---|
D|---------------------------------------------------------------------------|
A|---------------------------------------------------------------------------|
D|---8---------8---------8------------8-----------10--------------10---------|

d|--------------------0------------------------------------------------------|
A|-----8---8------7----------------------------------------------------------|
F|-------9----------8--------------------------------------------------------|
D|---------------------------------------------------------------------------|
A|---------------------------------------------------------------------------|
D|---8---------7-------------------------------------------------------------|

[Chorus] x2
d|------0----------0---------0------------------0---------0---------0--------|
A|-------0----------0---------0------------------0---------0---------0-------|
F|---------------------------------------------------------------------------|
D|---------------------------------------------------------------------------|
A|---------------------------------------------------------------------------|
D|---0---------2---------3---------5---10---7---------5---------3------------|

d|---------------------------------------------------------------------------|
A|---------------------------------------------------------------------------|
F|---------------------------------------------------------------------------|
D|---------------------------------------------------------------------------|
A|------3h5------------------------------------------------------------------|
D|---2-----------------------------------------------------------------------|

[Bridge]
d|---------10--------10-----------10--------------12-----------10--------10--|
A|------8--------8------------8-------------10-------------8---------8-------|
F|----9---9--------9--------9---9--------11----11--------9---9---------9-----|
D|---------------------------------------------------------------------------|
A|---------------------------------------------------------------------------|
D|---8---------8---------8------------10---------------8-----------8---------|

d|---------10--------------12---------10-------10------------------------10--|
A|------8------------10-----------8--------8-----------7---7---------8-------|
F|----9---9-------11----11------9---9--------9-----------8---8-----9---9-----|
D|---------------------------------------------------------------------------|
A|---------------------------------------------------------------------------|
D|---8---------10-------------8----------8-----------7-----------8-----------|


d|----------10----------10--------------12----------10----------10-----------|
A|------8-----------8-------------10------------8-----------8---------7---7--|
F|--------9-------9---9--------11----11-------9---9-----------9---------8---8|
D|---------------------------------------------------------------------------|
A|---------------------------------------------------------------------------|
D|---8----------8-----------10--------------8------------8----------7--------|

[Interlude]
d|---------------------------------------------12**--------------------------|
A|------12-11-12------------12-11-12-11-12-----------------------------------|
F|---------------------------------------------------------------------------|
D|---------------------12**-----------------12**-----------------------------|
A|------------------12**-----------------------------------------------------|
D|---12**--------12**-----------------------------12**-----------------------|

[Chorus] x2
d|------0----------0---------0------------------0---------0---------0--------|
A|-------0----------0---------0------------------0---------0---------0-------|
F|---------------------------------------------------------------------------|
D|---------------------------------------------------------------------------|
A|---------------------------------------------------------------------------|
D|---0---------2---------3---------5---10---7---------5---------3------------|

d|---------------------------------------------------------------------------|
A|---------------------------------------------------------------------------|
F|---------------------------------------------------------------------------|
D|---------------------------------------------------------------------------|
A|------3h5------------------------------------------------------------------|
D|---2-----------------------------------------------------------------------|

[Outro] (Fading)
d|------0----------0---------0-----------------0--------0--------0-------0---|
A|--------0----------0---------0-----------------0---------0-------0---------|
F|-------------------------------------------------------------------------3-|
D|---------------------------------------------------------------------------|
A|---------------------------------------------------------------------------|
D|---0----------2---------3--------5---10---7---------5--------3------2------|

d|---------------12**----------------12**---------------12**-------------12**|
A|-----12**-12**-----------12**-12**----------12**-12**---------12**-12**----|
F|---------------------------------------------------------------------------|
D|---------------------------------------------------------------------------|
A|---------------------------------------------------------------------------|
D|---0------------------0------------------0------------------0--------------|

d|---------------12**----------------12**---------------12**-------------12**|
A|-----12**-12**-----------12**-12**----------12**-12**---------12**-12**----|
F|---------------------------------------------------------------------------|
D|---------------------------------------------------------------------------|
A|---------------------------------------------------------------------------|
D|---0------------------0------------------0------------------0--------------|

************************************

| h   Hammer-on
| **   Harmonic

************************************
Suggest correction
Creating personal tab
Creating personal tab
You can edit any tab online and save it as your Personal.

You can edit, replace or remove any tab part or add personal notes – all changes will be seen only by you.

Personal tabs can be accessed anytime from any device, even offline.
Learn more »
Give kudos to tab author, rate the tab!
1 2 3 4 5
comments
print report bad tab
guest
You may want to rate the tab now too:
select rating
Wanna post a correction for this tab? Suggest correction