Oops, an error
Loading. Please wait.

Rockard Bass Tab

70 views 1 this week
no commentswrite comment
1 2 3 4 5
3 more votes to show rating
add to favorites
launch autoscroll
font size
0
reset
guitar tuner
Autoscroll
slow
fast
+/-
esc
set tempo
stop
Help us to improve Ultimate-Guitar.com Take our survey!
×
Author
Artist: Cobolt
Song: Rockard
Tabbed by: Kmilongo (kmilo1989@gmail.com)
Tuning: Drop-D Tuning (GDAD)

Intro (0:00)

G|---------------------------------------|
D|---------------------------------------|
A|------------------0-1(x9)-3-4-555-000--|
D|5(x9)-5-7-0(x9)-5---------------------0|

Verse (0:15)

G|---------------------------------------------------------------|
D|---------------------------------------------------------------|
A|---------------------------------7-----------------------------|
D|7-7---5-5-7-7---5-7-7---5-5-7-7-----0-5-0-7-5-0-----0-5-0-5-7-0| (x2)

Chorus (0:44)

G|------------------------------------|
D|------------------------------------|
A|------------------0-1(x9)-3-4-5(x11)|
D|5(x9)-5-7-0(x9)-5-------------------|

G|---------------------------------------|
D|---------------------------------------|
A|------------------0-1(x9)-3-4-555-000--|
D|5(x9)-5-7-0(x9)-5---------------------0|

Verse (1:14)

G|---------------------------------------------------------------|
D|---------------------------------------------------------------|
A|---------------------------------7-----------------------------|
D|7-7---5-5-7-7---5-7-7---5-5-7-7-----0-5-0-7-5-0-----0-5-0-5-7-0| (x2)

Chorus (1:43)

G|------------------------------------|
D|------------------------------------|
A|------------------0-1(x9)-3-4-5(x11)|
D|5(x9)-5-7-0(x9)-5-------------------|

G|---------------------------------------|
D|---------------------------------------|
A|------------------0-1(x9)-3-4-555-000--|
D|5(x9)-5-7-0(x9)-5---------------------0|

Bridge (2:13)

G|---------|
D|---------|
A|555-000--|
D|--------0| (This is repeated a second time at 2:42)

Outro (Final Chorus) (2:46)

G|------------------------------------|
D|------------------------------------|
A|------------------0-1(x9)-3-4-5(x11)|
D|5(x9)-5-7-0(x9)-5-------------------|

G|---------------------------------------|
D|---------------------------------------|
A|------------------0-1(x9)-3-4-555-000--|
D|5(x9)-5-7-0(x9)-5---------------------0|
Suggest correction
Give kudos to tab author, rate the tab!
1 2 3 4 5
comments
print report bad tab
guest
You may want to rate the tab now too:
select rating
Wanna post a correction for this tab? Suggest correction