Oops, an error
Loading. Please wait.

Guilty Pleasure Bass Tab

version 1
version 1

Whole song

Interactive

7,984 views 3 this week
4 commentsread comments
1 2 3 4 5
excellent!
x 8
add to favorites
launch autoscroll
font size
0
reset
guitar tuner
Tab Pro tools
  • play this tab
  • loop segment
  • change instrument
  • show fretboard
  • metronome
Autoscroll
slow
fast
+/-
esc
set tempo
stop
Contributor
-------------------------------------------------------------------------------
			   Guilty Pleasure - Cobra Starship
-------------------------------------------------------------------------------

Tabbed By: Valerie L. 
e-mail: iloled@yahoo.com
Tuning: standard

Verse
G|-------------------------|
D|-------------------------|
A|-----------67-7-7--7-976-|
E|-9-9-9-979---------------| x4

Pre-Chorus "You're never gonna get it with nothing.."
G|---------------------------------|
D|---------------------------------|
A|9--9-9---------------------------|
E|-------7--7-8-9--9-9--4--4-3-2--2|

Chorus "I came here to make you dance..."
G|------------------------------------------------------------------------|
D|------------------------------------------------------------------------|
A|77777777----------------------------------------------------------------|
E|---------88888888-99999999-2222-4444-55555555-00000000-55555555-77777777|x2

Verse x4
Pre-Chorus x1
Chorus x2

Rest until (2:43)
Bridge
G|------------------------------------------------------------------------|
D|------------------------------------------------------------------------|
A|------------------------------------------------------------------------|
E|7-8-----88888888-99999999-2222-4444-55555555-00000000-55555555-77777777-|

Chorus x2
comments
print report bad tab
4 comments total. Showing first comments.
+1 reply
jammyninja wrote on December 3 2007, 02:36 pm

Seems spot on to me.

0 reply
clareclare wrote on May 1 2008, 07:53 am

Yup. Perfect.

0 reply
Seney wrote on October 26 2008, 01:34 pm

Yeah!

I want to post or [tab]
guest
You may want to rate the tab now too:
select rating
Please do not post tabs as comments. Select "correction" instead!