Oops, an error
Loading. Please wait.

Kiss My Sass tab

5,103 views 1 this week
7 commentsread comments
1 2 3 4 5
x 5
add to favorites
×
Save as Personal and add changes to this tab that will be seen only by you. Learn more ›
×
You can save this tab as Personal to edit and correct it or add notes. All changes will be seen only by you. Learn more »
launch autoscroll
font size
0
reset
how to read this tab
guitar tuner
edit
Autoscroll
slow
fast
+/-
esc
set tempo
stop
Author
Difficulty
----------------------------------------------------------------------------
                      KISS MY SASS - COBRA STARSHIP
----------------------------------------------------------------------------
Tabbed by: Nic Foley (Double-Helix)
[Correction by: MonkeyAbuser]
Tuning: Standard (EADGBe)

Great song with not much to it.

intro/chorus:
guitar one (synth)                        x2
e|------------------------------------------|
B|------------------------------------------|
G|-9-9h11-9-7-4--4h6-4-2--7-6-6-7~----------|
D|------------------------------------------|
A|------------------------------------------|
E|------------------------------------------|
guitar two                               x2
e|------------------------------------------|
B|------------------------------------------|
G|------------------------------------------|
D|-5-77-9-----5-77-9------------------------|
A|-5-77-9-----5-77-9------------------------|
E|-3-55-7-----3-55-7------------------------|

PreChorus:
This is all bass except for the last line which is this:
"...honestly, they say that kid he's got..."
                                          x1
e|------------------------------------------|
B|------------------------------------------|
G|------------------------------------------|
D|--5~-------4~-----------------------------|
A|--5~-------4~-----------------------------|
E|--3~-------2~-----------------------------|

Verse 2:                                  x3
e|------------------------------------------|
B|------------------------------------------|
G|--7--77--4~-------------------------------|
D|--7--77--4~-------------------------------|
A|--5--55--2~-------------------------------|
E|------------------------------------------|

Bridge:
Travis - "they say that kid has got more soul than flight club.."
               x3                          x1
e|---------------|---------------------------|
B|---------------|---------------------------|
G|---------------|---------------------------|
D|--5--4--9--7---|--5--4--5--4---------------|
A|--5--4--9--7---|--5--4--5--4---------------|
E|--3--2--7--5---|--3--2--3--2---------------|


Song Order:
  intro/chorus
  verse 1 (bass only)
  prechorus
  intro/chorus
  verse 2
  prechorus
  intro/chorus x2
  Bridge
  intro/chorus x3


Lyrics:
  They say that kid he's got…

  I'm bringing sassy back,
  And everything that you thought you can't forget
  'Cause you know nothing but my name.
  And I don't wanna hear
  About people I don't know.
  Not you, not him, not her, no.

  You only see what I let you see,
  Nothing less and nothing more.
  What you say is nothing new to me.
  Honestly.

  They say that kid he's got soul.
  I'm everywhere that you go.
  And I've been there, seen that, and I ain't taking you home.
  No-o-o.

  Oh. Oh oh oh oh. Oh oh oh oh oh. Oh oh oh oh oh o-oh.
  Oh. Oh oh oh oh. Oh oh oh oh oh. O-oh. O-oh. O-oh. O-oh.

  And I ain't gonna lie,
  I can be a nasty guy.
  So you should probably sit
  'cause yeah my words come kinda quick
  And if you don't get it let me repeat it, just forget what you thought.

  Only see what I let you see
  Over and over again.
  What you say is nothing new to me.
  Honestly.

  They say that kid he's got soul.
  I'm everywhere that you go.
  And I've been there, seen that, and I ain't taking you home.
  No-o-o.
  But what do they know?
  I'm everywhere that you go (and I still got soul.)
  And I've been there, seen that, and I am taking you home.
  No-o-o.

  Oh. Oh oh oh oh. Oh oh oh oh oh. Oh oh oh oh oh o-oh.
  Oh. Oh oh oh oh. Oh oh oh oh oh. O-oh. O-oh. O-oh. O-oh.

  (Yeah, yeah. Travis. Here we go! )

  They say that kid he's got more soul than Flight Club.
  Can't you tell by the way I use my walk?
  Travis stay way cooler than the hand that lose that.
  Yeah bite twenty times worse than my bark.
  Yeah, took a little time but I'm finally here.
  Ten years deep just to make things clear.
  Now I'm doubled up throwing double B's in the air.
  Go get it off your chest like a tight brazier.
  Don't regret it.
  Just let it.
  Give credit.
  Don't sweat it.

  You can try but you just can't stop,
  Fangs up, cobra style.

  Honestly…

  They say that kid he's got soul.
  I'm everywhere that you go.
  And I've been there, seen that, and I ain't taking you home.
  No-o-o.
  But what do they know?
  I'm everywhere that you go (and I still got soul.)
  And I've been there, seen that, and I ain't taking you home.
  No-o-o.

  I'm everywhere that you go.
  And I've been there, seen that and I ain't taking you home.
Suggest correction
Creating personal tab
Creating personal tab
You can edit any tab online and save it as your Personal.

You can edit, replace or remove any tab part or add personal notes – all changes will be seen only by you.

Personal tabs can be accessed anytime from any device, even offline.
Learn more »
comments
print report bad tab
7 comments total. Showing first comments.
+1 reply
MonkeyAbuser 10 Jan 19, 2008 03:06 PM

Few slight corrections:
That first and fourth A5 chords you use in the Intro/Chorus (also in the verse really) should
be a G5 chord instead.
So it should look
like
e|------------------------------------------|
B|------------------------------------------|
G|------------------
------------------------|
D|-5-77-9-----5-77-9------------------------|
A|-5-77-9-----5-77-9------------------------|

E|-3-55-7-----3-55-7------------------------|

The transition between the verse and the chorus ("honestly...") should
actually
be:
e|------------------------------------------|
B|------------------------------------------|
G|-------------------
-----------------------|
D|--5~-------4~-----------------------------|
A|--5~-------5~-----------------------------|

E|--3~-------2~-----------------------------|

And finally, the break where Travis is rapping should
go:
e|-------------------------------------------|
B|-------------------------------------------|
G|-----------------
--------------------------|
D|--5--4--9--7-------------------------------|
A|--5--5--9--7-----------------------------
--|
E|--3--2--7--5-------------------------------|
Ending the same way as the transition from Verse to Chorus

+1 reply
MonkeyAbuser 10 Jan 20, 2008 04:40 PM

Sorry, I want to correct my own mistake to my previous correction
This chord does not exist in the
song:
e|-------|
B|-------|
G|-------|
D|-4~----|
A|-5~----|
E|-2~----|

It's supposed to just read as
so:
e|-------|
B|-------|
G|-------|
D|-4~----|
A|-4~----|
E|-2~----|

-1 reply
guyalexanderr 362 May 26, 2008 07:04 PM

this is awful

and there is'nt ANY guitar in this song

but for people that do what to play it on guitar
heres the lead at the start

e|-------------------------------------------------|
B|--5--5--7-5-3-0---0-5-7-5-3---5--7--5--3---------|
G|-------------------------------------------------|
D|-------------------------------------------------|
A|-------------------------------------------------|
E|-------------------------------------------------|

tryed to show the timing there too

guest
You may want to rate the tab now too:
select rating
Wanna post a correction for this tab? Suggest correction