Oops, an error
Loading. Please wait.

The City Is At War tab

version 1
version 1

Whole song

13,395 views 1 this week
5 commentsread comments
1 2 3 4 5
x 7
add to favorites
×
Save as Personal and add changes to this tab that will be seen only by you. Learn more ›
×
You can save this tab as Personal to edit and correct it or add notes. All changes will be seen only by you. Learn more »
launch autoscroll
font size
0
reset
how to read this tab
guitar tuner
edit
Autoscroll
slow
fast
+/-
esc
set tempo
stop
Author
***********************************
Cobra Starship - The City Is At War
***********************************

I only tabbed the guitar parts.

This is such an easy song

Standar Tunning (but you can play it in Drop D if you want)

Chorus:

e|---------------------------------------------|
B|---------------------------------------------|
G|---------------------------------------------|
D|---------------------------------------------|
A|-1010101010101010-99999999-66666666-55555555-|
E|-8-8-8-8-8-8-8-8--77777777-44444444-33333333-|

Verse:
(Listen to the song)
e|------------------------------------|
B|------------------------------------|
G|------------------------------------|
D|------------------------------------| x2
A|-3-3-3131--------------111-3313-131-|(the second time don't play the last 3 notes
E|----------3363--3321-1----3---------|

Once you played this part once another guitar comes in and plays this (not 100% sure):

e|------------------------------------|
B|------------------------------------|
G|-8888888877777777--5555555577777777-|
D|-xxxxxxxxxxxxxxxx--xxxxxxxxxxxxxxxx-|
A|-6666666655555555--3333333355555555-|
E|------------------------------------|

Pre-Chorus:

e|--16--16--16--16--15--15--15--15----|
B|--16--16--16--16--16--16--16--16----|
G|------------------------------------|
D|------------------------------------|
A|------------------------------------|
E|------------------------------------|

e|--16--16--16--16--1515151515151515--|
B|--16--16--16--16--1616161616161616--|
G|------------------------------------|
D|------------------------------------|
A|------------------------------------|
E|------------------------------------|

|Chorus|

|Verse|

|Pre-Chorus|

|Interlude (the "Oh's" part)|

|Chorus|

|Outro| For the outro play the Verse without the second guitar.

That's it (:

Rate It High Yo :)
Suggest correction
Creating personal tab
Creating personal tab
You can edit any tab online and save it as your Personal.

You can edit, replace or remove any tab part or add personal notes – all changes will be seen only by you.

Personal tabs can be accessed anytime from any device, even offline.
Learn more »
comments
print report bad tab
5 comments total. Showing first comments.
0 reply
ShrimpthePimp 785 Feb 12, 2008 02:25 PM

I suggest that
e|--16--16--16--16--15--15--15--15----|
B|--16--16--16--16--15--15--15--15----|
G|------------------------------------|
D|------------------------------------|
A|------------------------------------|
E|------------------------------------|

becomes

e|--16--16--16--16--15--15--15--15----|
B|--16--16--16--16--16--16--16--16----|
G|------------------------------------|
D|------------------------------------|
A|------------------------------------|
E|------------------------------------|


minor problem,
good job though, i was gonna do this but you beat me too it.
:)

0 reply
ChemyVamp 805 Feb 13, 2008 10:42 AM

k i'll update this shit (:

0 reply
MusicMan24 1,124 Apr 19, 2009 09:51 AM

The only thing wrong is thr pre-chorus, and what the 1st person wrote is right

guest
You may want to rate the tab now too:
select rating
Wanna post a correction for this tab? Suggest correction