Oops, an error
Loading. Please wait.

The Scene Is Dead Long Live The Scene ukulele

131 views 3 this week
no commentswrite comment
1 2 3 4 5
3 more votes to show rating
add to favorites
×
Save as Personal and add changes to this tab that will be seen only by you. Learn more ›
×
You can save this tab as Personal to edit and correct it or add notes. All changes will be seen only by you. Learn more »
launch autoscroll
font size
0
reset
transpose
0
reset
display chords
guitar tuner
edit
Autoscroll
slow
fast
+/-
esc
set tempo
stop
Strumming
There is no strumming pattern for this song yet. and get +5 IQ
This is my favourite song by Cobra Starship, and its easy to play, just 4 Chords, E, F#,
B, Ab I also posted my cover of this song to my profile, so if you want, you can listen 
to what it sounds like. Thanks and please rate.

   E      F#     B      Abm
e|-0------2------2------4-------------|
B|-0------2------4------4-------------|
G|-1------3------4------4-------------|
D|-2------4------4------6-------------|
A|-2------4------2------6-------------|
E|-0------2------2------4-------------|

Heres a tab from 0:00 - 0:27 , then it goes to strumming

     Abm                          E
e|---------------------------------------------------------|
B|---------------------------------------------------------|
G|---------------------------------------------------------|
D|---6-6----6-6----6-6----6-6----2-2----2-2----2-2----2-2--| x3
A|---6-6----6-6----6-6----6-6----2-2----2-2----2-2----2-2--|
E|-4-4-4--4-4-4--4-4-4--4-4-4--0-0-0--0-0-0--0-0-0--0-0-0--|


VERSE

Abm
I'm not playin' this game no more
E
I'm out of medicine, so call the medics.
Abm
You're all as dumb as you were before
E
Don't ask me questions; I won't explain it.
Abm
It should be fun but it's getting old.
E
I take my medicine,
                 B
be your favorite man.
                                  Abm
You think you understand but you don't.

You got no idea at all.
B
And in between the sentence,
          Abm
there's still assemblence,

intelligently screwed.

CHORUS

E      F#
Oh yeah, its alright,
B
'cause I got a pretty face

I guess that I could sing alright.
E      F#
Oh yeah, its alright
B
I could love you like a sailor,

I could make you dance all night.

VERSE 2

B
Maybe you'll understand when I'm gone,
Abm
that you had no idea at all.
B
But in this very second,
  Abm
I never mentioned

In dreams I keep from you.

CHORUS 2

E      F#
Oh yeah, its alright,
B
'cause I got a pretty face

I guess that I could sing alright.
E      F#
Oh yeah, its alright
B
I could love you like a sailor,

I could make you dance all night.
E      F#
Oh yeah, its alright,
B
'cause I got a pretty face

I guess that I could sing alright.
E     F#                Abm, E (into 3rd verse)
I can be your favorite man.

VERSE 3

It goes back to this in the 3rd verse combined with Ab and E chords
e|---------------------------------------------------------|
B|---------------------------------------------------------|
G|---------------------------------------------------------|
D|---6-6----6-6----6-6----6-6----2-2----2-2----2-2----2-2--|
A|---6-6----6-6----6-6----6-6----2-2----2-2----2-2----2-2--|
E|-4-4-4--4-4-4--4-4-4--4-4-4--0-0-0--0-0-0--0-0-0--0-0-0--|


Abm
Don't mean to sound like a rotten boy.
E
For all my blessings, I'm surely grateful.
Abm
'Cause I'm the dream you've been waiting for.
E
I always dreamnt that I'd be your favorite...

CHORUS 3

E       F#
Oh yeah, its alright,
B
'cause I got a pretty face

I guess that I could sing alright.
E       F#
Oh yeah, its alright
B
I could love you like a sailor,

I could make you dance all night.
E       F#
Oh yeah, its alright,
B
I got a pretty face

I guess that I could sing alright.
E     F#                B (hold)
I can be your favorite man.
Suggest correction
Creating personal tab
Creating personal tab
You can edit any tab online and save it as your Personal.

You can edit, replace or remove any tab part or add personal notes – all changes will be seen only by you.

Personal tabs can be accessed anytime from any device, even offline.
Learn more »
Give kudos to tab author, rate the tab!
1 2 3 4 5
comments
print report bad tab
guest
Wanna post a correction for this tab? Suggest correction