Oops, an error
Loading. Please wait.

Gonna Be Alright chords

31 views 3 this week
no commentswrite comment
1 2 3 4 5
1 last vote to show rating
add to favorites
×
Save as Personal and add changes to this tab that will be seen only by you. Learn more ›
×
You can save this tab as Personal to edit and correct it or add notes. All changes will be seen only by you. Learn more »
launch autoscroll
font size
0
reset
transpose
0
reset
display chords
guitar tuner
edit
Autoscroll
slow
fast
+/-
esc
set tempo
stop
Strumming
There is no strumming pattern for this song yet. and get +5 IQ
Gonna Be Alright - Cock Sparrer

[Intro]
e|----------------------------------------------|
B|----------------------------------------------|
G|----------------------------------------------|
D|-11-11-11-9------------12-12-12-11-9-----9----|  x2
A|------------12---9-12-----------------12------|
E|----------------------------------------------|

[Verse 1]
A                  F#         F#
I know you and you want to be here
A                            F#   F#
Not being around is what you most fear
A                 F#       F#
You know me and I feel the same
D                  E
Life is cruel this isn't a game

A                    F#     F#
Time always seems in such a hurry
A                 F#            F#
The wife of a man meets up with worry
A                          F#         F#
You looked in her eyes and figured it out
D                E
You won't always be about
D                E
You won't always be about

[Chorus]
A                          E            D
I'm telling you she's it's going to be ok
    A                E                    D    C#  A   F#
I'm telling you that she pull through and find her own way
A                  E                 D
Telling you she is going to win this fight
    A                 E        D
I'm telling you she's going to be ...

A|--5-4-0----------------|
E|--------2-0------------|

N.C
Going to be alright

e|----------------------------------------------|
B|----------------------------------------------|
G|----------------------------------------------|
D|-11-11-11-9------------12-12-12-11-9-----9----|  x2
A|------------12---9-12-----------------12------|
E|----------------------------------------------|

[Verse 2]
A                            F#           F#
It breaks your heart but you don't let it show
A                     F#        F#
It's not ideal but at least you know
A                           F#   F#
She's got great friends and fami-ly
D                    E
To pull her through eventually

A                         F#          F#
Bound to be days that are filled with pain
A                         F#       F#
Closes her eyes cause she with you again
A                            F# F#
She's part of you so there's no surprise
      D                 E
She's stronger than you realize
D                 E
Stronger than you realize

[Chorus]
A                          E            D
I'm telling you she's it's going to be ok
    A                E                    D    C#  A   F#
I'm telling you that she pull through and find her own way
A                  E                 D
Telling you she is going to win this fight
    A                 E        D
I'm telling you she's going to be ...

[Break]
   ring  ring           ring
D|----12-----------------12--11-12-14--|
A|-9-----12--11-12-11--9---------------|
E|-------------------------------------|

[Solo]
G|------------------------------------------------------------------7--9--11-9-|
D|--14-11-11-14-9-9-11-------------9-11-12-11-9--14-11-11-14-9-9-11------------|
A|---------------------12--12-9-12---------------------------------------------|
E|-----------------------------------------------------------------------------|

[Outro]
A                          E            D
I'm telling you she's it's going to be ok
    A                E                    D    C#  A   F#
I'm telling you that she pull through and find her own way
A                  E                 D
Telling you she is going to win this fight
    A                 E        D
I'm telling you she's going to be ...

N.C                                     D
I'm telling you she's it's going to be ok
    A                E                    D    C#  A   F#
I'm telling you that she pull through and find her own way
A                  E                 D
Telling you she is going to win this fight
    A                 E        D
I'm telling you she's going to be ...

A|--5-4-0----------------|
E|--------2-0------------|

N.C
She's gonna be alright

e|----------------------------------------------|
B|----------------------------------------------|
G|----------------------------------------------|
D|-11-11-11-9------------12-12-12-11-9-----9----|  x1
A|------------12---9-12-----------------12------|
E|----------------------------------------------|

E        A   F#
gonna be alright
E        A   F#
gonna be alright
E        A   F#
gonna be alright






Suggest correction
Creating personal tab
Creating personal tab
You can edit any tab online and save it as your Personal.

You can edit, replace or remove any tab part or add personal notes – all changes will be seen only by you.

Personal tabs can be accessed anytime from any device, even offline.
Learn more »
Give kudos to tab author, rate the tab!
1 2 3 4 5
comments
print report bad tab
guest
You may want to rate the tab now too:
select rating
Wanna post a correction for this tab? Suggest correction