Oops, an error
Loading. Please wait.

One By One chords

91 views 1 this week
no commentswrite comment
1 2 3 4 5
2 more votes to show rating
add to favorites
×
Save as Personal and add changes to this tab that will be seen only by you. Learn more ›
×
You can save this tab as Personal to edit and correct it or add notes. All changes will be seen only by you. Learn more »
launch autoscroll
font size
0
reset
transpose
0
reset
simplify chords
display chords
guitar tuner
edit
Autoscroll
slow
fast
+/-
esc
set tempo
stop
About this tab version
Minor format corrections for when the chords are silent. Was this info helpful? Yes No
Strumming
There is no strumming pattern for this song yet. and get +5 IQ
One by One - Cock Sparrer
Album: Forever

[Chords]
F#(2)D|-4-|  F#(9) G|-11-| C#m D|-11-|
     A|-4-|        D|-11-|     A|-11-|
     E|-2-|        A|-9--|     E|-9--|

[Intro]
e|-----------------------------------------------------------------------------------|
B|-----------------------------------------------------------------------------------|
G|------------------8-9--11-9-8--9-8---------------------8-9--11-9-8--9-8------------|
D|------8/9--9-9-11------------------11-------8/9--9-9-11----------------11------8/9-|
A|--9-11--------------------------------9-11--------------------------------9-11-----|
E|-----------------------------------------------------------------------------------|

[Verse 1]
B                                   D#
Kicking cans along the foot path ....
D#
Spraying our name on the wall
         B                         E
Giving a little bit of lip to that gobby shit
                A                          F#
From that other mob as we walked back from school
F#
ONE BY ONE!

[Chorus]
     B
With mates like these
      F#(9)
We’ll take our enemies
      C#m
We’ll take ‘em all, take ‘em all
      E    D#   C#m B
We’ll take them all on
     B
With mates like these
      F#(9)
We’ll take our enemies
      C#m
We’ll take ‘em all, take ‘em all
      E    D#   C#m B  F#(2)
We’ll take them all on ....
N.C
Till the last one is
B
gone

[Verse 2]
B                             D#
Tying knots and having babies ....
D#
Pride as the family starts to grow
       B                      E
I fear no attack Cause you’ve got my back
    A                               F#(2)
And I’ve got yours So let everybody know
F#(2)
ONE BY ONE!

[Chorus]
     B
With mates like these
      F#(9)
We’ll take our enemies
      C#m
We’ll take ‘em all, take ‘em all
      E    D#   C#m B
We’ll take them all on
     B
With mates like these
      F#(9)
We’ll take our enemies
      C#m
We’ll take ‘em all, take ‘em all
      E    D#   C#m B  F#(2)
We’ll take them all on ....
                     B
Till the last one is gone

[Instrumental]
e|-----------------------------------------------------------------------------------|
B|-----------------------------------------------------------------------------------|
G|------------------8-9--11-9-8--9-8---------------------8-9--11-9-8--9-8------------|
D|------8/9--9-9-11------------------11-------8/9--9-9-11----------------11------8/9-|
A|--9-11--------------------------------9-11--------------------------------9-11-----|
E|-----------------------------------------------------------------------------------|

[Bridge]
E                   F#(9)
We’ll take them all on !!!
N.C
Till the last one is
B
gone

[Verse 3]
B                                  D#
From the heart of old Britannia ....
D#
To a show in another land
B                          E
Together were strong as we sing along
   A                                F#(2)
Anytime , anywhere, bring it on ... Here we Stand
F#(2)
ONE BY ONE!

[Outro]
     B
With mates like these
      F#(9)
We’ll take our enemies
      C#m
We’ll take ‘em all, take ‘em all
      E    D#   C#m B
We’ll take them all on

     B
With mates like these
      F#(9)
We’ll take our enemies
      C#m
We’ll take ‘em all, take ‘em all
      E    D#   C#m B
We’ll take them all on

     B
With mates like these
      F#(9)
We’ll take our enemies
      C#m
We’ll take ‘em all, take ‘em all
      E    D#   C#m B
We’ll take them all on

     B
With mates like these
      F#(9)
We’ll take our enemies
      C#m
We’ll take ‘em all, take ‘em all
      E    D#   C#m B  F#(2)
We’ll take them all on ....
N.C
Till the last one is
B
gone ......
Suggest correction
Creating personal tab
Creating personal tab
You can edit any tab online and save it as your Personal.

You can edit, replace or remove any tab part or add personal notes – all changes will be seen only by you.

Personal tabs can be accessed anytime from any device, even offline.
Learn more »
Give kudos to tab author, rate the tab!
1 2 3 4 5
comments
print report bad tab
guest
You may want to rate the tab now too:
select rating
Wanna post a correction for this tab? Suggest correction