Oops, an error
Loading. Please wait.

The Psychomodo album tab

3,028 views 3 this week
1 commentread comment
1 2 3 4 5
2 more votes to show rating
add to favorites
×
Save as Personal and add changes to this tab that will be seen only by you. Learn more ›
×
You can save this tab as Personal to edit and correct it or add notes. All changes will be seen only by you. Learn more »
launch autoscroll
font size
0
reset
how to read this tab
guitar tuner
edit
Autoscroll
slow
fast
+/-
esc
set tempo
stop
Author
I didn't write this tab, it's from 
but I've put it here as it's easier to find.


Sweet Dreams
Intro in G and pluck e b

   G                        D
|--3------------------------------------------|
|--3------------------------7---7---7--5--7---|
|--4------------------------7---7---7--5--7---|
|--5------------------------7---7---7--5--7---|
|--5------------------------5---5---5-----5---|
|--3------------------------------------------|
  Pop paper people printing "Rebel Insane"
  They in my head and digging into my brain
  I need an umbrella to keep out of the rain

         C                     D
I can't hope to the pace I've made, maybe
I'll settle in the country and fade

*********************


Psychomodo (This coulb be in Ab, but it's easier to play this way)

 G                D                    Em
I been losing my head I been losing my way
                  Bm                        C
I been losing my brain cells at a million a day
                  D                       G
I been so disillusioned I'm on suicide street


I seen everything in every shape
I seen 1984 in a terrible state
I seen you Quasimodo Hanging on my gate

 D                        C
Oh he was so hung up and wasted
Oh he was so physically devastated
        Bm                       Am            Am / Bm / C / D
He was young enough He was well slung enough

***************


Mr Soft
Intro:
(e-d-e-d-e-d-e) B/D/D#/Em /Em/d /Em /Em/d-------|
|-----------------------------------------------|
|-----------------------------------------------|
|-----------------------------------------------|
|-----------------------------------------------|
|7-5-7-5-7-5-7---5-6-7--------------------------|
|--------------7--------------------------------|

 Chords
 Em/D     C  D  Em       Am   Em  fill       Am
|3-----------2---0------------0--------------------|
|5--------5--3---0-------1----0--------------------|
|4--------5--2---0-------2----0----2-0-------------|
|0--------5------1-------2----1--------3-2-0-------|
|--------------------------------------------------|
|--------------------------------------------------|

Em/D                               C                   D                 Em
Mr Soft turn around and force the world to watch the things you're going through
Mr Soft believe everything they tell you      And be damned if they'll thank you

     Am                  Em     (fill)
You paint everything so cruel
    Coming on like Mr Cool

  Am                          G                                F#
Paint your face and shut the gate Noone's not coming home 'til late

*********************************

Singular Band   Mainly in E pluck around these notes (e g a b)

 E                        B                A           C            F  E
|--------5-7-7-7-5-------|7-7-7-7----------5-5-5-5-----8-8-|
|5-5-5-8-----------8-5-5-|---------------------------------|
|------------------------|---------------------------------|
|------------------------|---------------------------------|
|------------------------|---------------------------------|
|------------------------|---------------------------------|
                         who will want us  who will    now... singular band

*******************************


Ritz
 Em/E Strum 12 String               Em
|--0-0--0-0--0-0-0-0--------------------------------------------------|
|--0-0--0-0--0-0-0-0--------------------------------------------------|
|X-X-X-4-4--4-4-0-0----playing the 4 adds b -closer to the 12---------| string sound
|2-2-2--2-2--2-2-2-2--------------------------------------------------|
|2-----------2-2-2-2----etc-------------------------------------------|
|0-----------0-0-0-0--------------------------------------------------|
Hark to Roualt's white insanity        Clowns in drag concealing vani

 Asus2 (Am with c to b)              C                               Em
|0-----------------------------------0------------------------------|
|0---------------------------------0-1------------------------------|
|2---------------------------------0-2------------------------------|
|2---------------------------------0-0------------------------------|
|0-----------------------------------3------------------------------|
|-------------------------------------------------------------------|
 ity         This is hardly Paradise  We're still in search of petty scorn......

***********************************


Cavaliers
C#m - B - A - F#m - E
Refr:  E - F#m - G#m - A - B

Intro (from Guy)
C#m          B             A           F#m               E
|4--------------------------------------------------------0-|
|5------------4-------------2-----------2-------2--2-4-2-4--|
|6------------4-----------1-2-----------2-1-2-4--4----------|
|6-----1-2-4--4-----1-2-4---2-----1-2-4-4-------------------|
|4-2-4--------2-2-4---------0-2-4-------4-------------------|
|-----------------------------------------------------------|

*******************************


Bed In the Corner
Intro
 C           G           F           C
|-----------|-----------|-----------|------------|
|5-5---5--5-|3-3---3--3-|1-1---1--1-|5-----------|
|5-5---5--5-|4-4---4--4-|2-2---2--2-|5-------5---|
|--------5--|--------5--|--------3--|5-----5---5-|
|-----------|-----------|-----------|------------|
|-----------|-----------|-----------|------------|x2

C                      G            F                 C
     I've just been speaking to the one who holds the key     when she

G               F                   C                 C
asked me if I'd like to wait and to see                       Would I

Am                 G
like to try and explain?       Would I

Em                 Am          Am  G/B
like to try and explain?       How my

C                  G               C
heart is feeling tonight with the strain?     She just said

Am                 G               Am
     I've got a    bed here for you...... I've got a


G                 Am                  G
bed   here  for  me...... So you can  look into my eyes And

   F  F/E F/D F/C F/A F/G    C
tell      me what     you   see.......

Fill after "....away from the end"

|----------------|
|1---------------|
|--4-2-0---------|
|--------2-3-0---|
|--------------3-|
|----------------|

*************************************


Sling It
|Am  G  |F    |

Chorus
|Am     |G    |F    |G    |
Sling it

***************************************


Tumbling Down

Basically repeats the same chord progression all the way through.

A C#m F#m E D A E E = 4 bars & F#m D E E are the other chords

A            C#m           F#m          E            D           A          E        E
Gee but it's hard when one lowers ones  gaurd to the vultures................
Now, me I  re-guard it a   tortuous     hardship that smoulders..............   Like a

F#m          D          E         E
peppermint    eaten    a-way..      Will I
fight, will I swagger or sway?

A            C#m           F#m          E            D           A          E        E
Hee, hee     M'Lady, she   cries like a baby to  scould us.................see her tumbling
down.............................,        tumbling down...................


Instrumental - F# D E E (x2) then back to A C#m.. etc

A            C#m           F#m          E            D           A          E        E
Oh           dear     look what they've done to the  blues       blues      blues

(A note from Hans:- This progession keeps going on, the power in this song when you 
playing soft and then louder. When building it up you should let the bass be more prominent 
2nd verse.
It should be A with G# in the bass etc....)

            
            
Suggest correction
Creating personal tab
Creating personal tab
You can edit any tab online and save it as your Personal.

You can edit, replace or remove any tab part or add personal notes – all changes will be seen only by you.

Personal tabs can be accessed anytime from any device, even offline.
Learn more »
Give kudos to tab author, rate the tab!
1 2 3 4 5
comments
print report bad tab
1 comment total.
0 reply
johnstandring 10 Apr 01, 2017 01:37 PM

👍

guest
You may want to rate the tab now too:
select rating
Wanna post a correction for this tab? Suggest correction