Oops, an error
Loading. Please wait.

June Tab

1,287 views 1 this week
no commentswrite comment
1 2 3 4 5
2 more votes to show rating
add to favorites
launch autoscroll
font size
0
reset
how to read this tab
guitar tuner
Autoscroll
slow
fast
+/-
esc
set tempo
stop
Help us to improve Ultimate-Guitar.com Take our survey!
×
Author
Capo
1st fret
It's the first tab i made, so please be indulgent! And enjoy :)


Capo 1

Intro = main theme
    |     |      |     |              |     |       |     |      
e||-------0--0-3-------0-3--------|---3-----3--3-5--------5-3-------------|
B||-------1--1---------1---1------|---3-----3--3----------3---3-----------|
G||-------2--2---------2----------|---0-----0--0-------0--0---------------|
D||----2--2--2------2--2----------|---2--2--2--2----2-----2---------------|
A||-0-----0--0---0-----0----------|---------------------------------------|
E||-------------------------------|---------------------------------------|

    |       |       |     |          |       |       |     |
e||-2-------2--2-3--------3-2-----|----0-----0--0-3--------0-3------------|
B||-3-------3--3----------2----2--|--3-------3--3----------2-------       |
G||-2-------2--2-------2--3-------|--0-------0--0----------0------ 2times |
D||-----0-----------0-------------|--2-------2--2-------2--2-----2-       |
A||-------------------------------|--3----3--3--3----3-----3--------------|
E||-------------------------------|---------------------------------------|

 
Verse
     |     |      |     |              |     |       |     |      
e||-------0--0-3-------0-3--------|---3-----3--3-5--------5-3-------------|
B||-------1--1---------1---1------|---3-----3--3----------3---3-----------|
G||-------2--2---------2----------|---0-----0--0-------0--0---------------|
D||----2--2--2------2--2----------|---2--2--2--2----2-----2---------------|
A||-0-----0--0---0-----0----------|---------------------------------------|
E||-------------------------------|---------------------------------------|

    |       |       |     |            |       |       |     |
e||-2-------2--2-3--------3-2-------|----0-----0--0-3--------5------------|
B||-3-------3--3----------2----2----|--3-------3--3-----------------------|
G||-2-------2--2-------2--3---------|--0-------0--0-----------------------|
D||-----0-----------0---------------|--2-------2--2-------2---------------|
A||---------------------------------|--3----3--3--3----3------------------|
E||---------------------------------|-------------------------------------|       


Refrain
| | |     |        |     |          | |     |     |      |
e||-7-----7-----7--------7----------|-3-----3---3----5---7----------------|
B||-5-----5--------------5----------|-3-----3------------5----------------|
G||-7--7--7-----------7--7----7-----|-0-----0------------7----------------|
D||-0-----0--------0-----0----------|-2--2--2-----2------0--0-------------|
A||---------------------------------|-------------------------------------|
E||---------------------------------|-------------------------------------|

    |       |      |           |    | |     |       |     |
e||-7----7---------7-----------5----|-5-----5----5--------5---------------|
B||-5--------------5-----------3----|-3-----3-------------3---------------|
G||-7----------7---7-----7-----4----|-4-----4----------4--4-----4---------|
D||-0-------0------0-----------0--0-|-0--0--0-------0-----0---------------|
A||---------------------------------|-------------------------------------|
E||---------------------------------|-------------------------------------|

    |     |     |     |
e||-3-----3---3-------0-3-----------|-------------------------------------|
B||-3-----3-------------------------|-------------------------------------|
G||-0-----0--------0----------------|-------------------------------------|
D||-2--2--2-----2----------2--------|-------------------------------------|
A||---------------------------------|-------------------------------------|
E||---------------------------------|-------------------------------------|

and :
Main theme 1 time
Verse
Refrain
Transition
and main theme.
Suggest correction
Give kudos to tab author, rate the tab!
1 2 3 4 5
comments
print report bad tab
guest
You may want to rate the tab now too:
select rating
Wanna post a correction for this tab? Suggest correction