Oops, an error
Loading. Please wait.

Vultures Tab

version 1
version 1

Whole song

Interactive

9,883 views 15 this week
no commentswrite comment
1 2 3 4 5
excellent!
x 3
add to favorites
launch autoscroll
font size
0
reset
how to read this tab
guitar tuner
Tab Pro tools
  • play this tab
  • loop segment
  • change instrument
  • show fretboard
  • metronome
Autoscroll
slow
fast
+/-
esc
set tempo
stop
Contributor
Difficulty
novice
-----------------------------------------------------------------------------
                             Vultures - Cocoon
-----------------------------------------------------------------------------
Tabbed by: granarc (Robin Gullo)
Email: granarc *at* free *dot* fr

(I'm French so sorry for my medium English)
 

This song must be played with energy, using some tricks like slapping or anything 
that keeps the song stirring.

Energic doesn't mean fast: take it as you feel it (the album version is quite slow).
However, if you want to speed up, that's gonna be hard to play the original beat 
Bass-Chord-Chord, it will be clearer if you only play Bass-Chord.



CAPO 1

Chords are capo relative (not the real names). They are in fact one half-step down.

Am       [002210]
C        [332010]
Dadd9    [200230]
F        [133211]
E        [022100]
Fmaj7    [103210]
E7       [450450]
Am*      [50x550]
Bb       [688766]
Am**     [577555]
G7       [353433]


Two chords are invented : the E7 and the Am*.

    3   4   5   6              3   4   5   6
e||---|---|---|---||       e||---|---|---|---||
B||---|---|-R-|---||       B||---|---|-L-|---||
G||---|-I-|---|---||       G||---|---|-R-|---||
D||---|---|---|---||       D||---|xIx|---|---||
A||---|---|-M-|---||       A||---|---|---|---||
E||---|-T-|---|---||       E||---|---|-M-|---||

         E7                         A*

Fingers :
T = Thumb, I = Index, M = Middle, R = Ring, L = Little
x = mute





== Intro ==

e||------------||
B||------------||
G||------------||
D||------------||
A||-------0--3-||
E||-0--3-------||


                Am                      Am     "Oh my father..."
e||----0-0----0-0----0-0----0-0-|----0-0----0-0------------|
B||----1-1----1-1----1-1----1-1-|----1-1----1-1------------|
G||----2-2----2-2----2-2----2-2-|----2-2----2-2------------|
D||----2-2----2-2----2-2----2-2-|----2-2----2-2------------|
A||-0-------------0-------------|-0-------------------0--3-|
E||--------0-------------0------|--------0------0--3-------|

You may swing the chords groups a little.




== Verse 1 ==


               Am                             C
e||----0-0----0-0----0-0------|----0-0----0-0----0-0----0-0-|
B||----1-1----1-1----1-1------|----1-1----1-1----1-1----1-1-|
G||----2-2----2-2----2-2------|----0-0----0-0----0-0----0-0-|
D||----2-2----2-2----2-2------|----2-2----2-2----2-2----2-2-|
A||-0-------------0---------0-|-3-------------3-------------|
E||--------0-------------3----|--------3-------------3------|


               Dadd9              F              E
e||----0-0----0-0----0-0----0-0-|----1-1----1-1--0----------|
B||----3-3----3-3----3-3----3-3-|----1-1----1-1--0----------|
G||----2-2----2-2----2-2----2-2-|----2-2----2-2--1----------|
D||----0-0----0-0----0-0----0-0-|----3-3----3-3--2----------|
A||-----------------------------|----------------2-----0--3-|
E||-2------2------2------2------|-1------1-------0--3-------|


               Am                             C
e||----0-0----0-0----0-0------|----0-0----0-0----0-0----0-0-|
B||----1-1----1-1----1-1------|----1-1----1-1----1-1----1-1-|
G||----2-2----2-2----2-2------|----0-0----0-0----0-0----0-0-|
D||----2-2----2-2----2-2------|----2-2----2-2----2-2----2-2-|
A||-0-------------0---------0-|-3-------------3-------------|
E||--------0-------------3----|--------3-------------3------|


               Dadd9              Fmaj7         E
e||----0-0----0-0----0-0----0-0-|----0-0----0-0----0-0----0-0-||
B||----3-3----3-3----3-3----3-3-|----1-1----1-1----0-0----0-0-||
G||----2-2----2-2----2-2----2-2-|----2-2----2-2----1-1----1-1-||
D||----0-0----0-0----0-0----0-0-|----3-3----3-3----2-2----2-2-||
A||-----------------------------|-----------------------------||
E||-2------2------2------2------|-1------1------0------0------||




== Chorus ==


                 E7                            Am*
e||----0-0----0-0----0-0----0-0-|----0-0----0-0----0-0----0-0-|
B||----5-5----5-5----5-5----5-5-|----5-5----5-5----5-5----5-5-|
G||----4-4----4-4----4-4----4-4-|----5-5----5-5----5-5----5-5-|
D||----0-0----0-0----0-0----0-0-|----x-x----x-x----x-x----x-x-|
A||-----------------------------|-----------------------------|
E||-4------4------4------4------|-5------5------5------5------|


    Bb            Am**            G7            E
e||----6-6----6-6----5-5----5-5-|----3-3----3-3----0-0----0-0-|
B||----6-6----6-6----5-5----5-5-|----3-3----3-3----0-0----0-0-|
G||----7-7----7-7----5-5----5-5-|----4-4----4-4----1-1----1-1-|
D||----8-8----8-8----7-7----7-7-|----3-3----3-3----2-2----2-2-|
A||-----------------------------|-----------------------------|
E||-6------6------5------5------|-3------3------0------0------|

You may add more strikes on the E.


                 E7                            Am*
e||----0-0----0-0----0-0----0-0-|----0-0----0-0----0-0----0-0-|
B||----5-5----5-5----5-5----5-5-|----5-5----5-5----5-5----5-5-|
G||----4-4----4-4----4-4----4-4-|----5-5----5-5----5-5----5-5-|
D||----0-0----0-0----0-0----0-0-|----x-x----x-x----x-x----x-x-|
A||-----------------------------|-----------------------------|
E||-4------4------4------4------|-5------5------5------5------|


    Bb            Am**            G7
e||----6-6----6-6----5-5----5-5-|----3-3----3-3------------||
B||----6-6----6-6----5-5----5-5-|----3-3----3-3------------||
G||----7-7----7-7----5-5----5-5-|----4-4----4-4------------||
D||----8-8----8-8----7-7----7-7-|----3-3----3-3------------||
A||-----------------------------|---------------------0--3-||
E||-6------6------5------5------|-3------3------0--3-------||




== Bridge ==


                Am                       Am
e||----0-0----0-0----0-0----0-0-|----0-0----0-0--0--||
B||----1-1----1-1----1-1----1-1-|----1-1----1-1--1--||
G||----2-2----2-2----2-2----2-2-|----2-2----2-2--2--||
D||----2-2----2-2----2-2----2-2-|----2-2----2-2--2--||
A||-0-------------0-------------|-0--------------0--||
E||--------0-------------0------|--------0-------0--||

The bridge may be longer.
Don't hold the last chord, the effect is better.




== Verse 2 ==


Like the verse 1 :
Am-C-Dadd9-F-E
Am-C-Dadd9-Fmaj7-E

The only difference is that the two last chords Fmaj7 and E are played only once, 
softly and slowing down (listen to the song).




== Chorus ==


E7-Am*-Bb-Am**-G7-E
E7-Am*-Bb-Am**-G7 + -0--3--0--3-




== Bridge 2 ==


This part includes a little riff (I'm not gonna put it here) and some "oh-oh-oooh-oh".

The chords are like in the verse :
Am-C-Dadd9-F-E
Am-C-Dadd9-Fmaj7-E




== Chorus ==


E7-Am*-Bb-Am**-G7-E
E7-Am*-Bb-Am**-G7-E

At the end, repeat the 4 last chords (Bb-Am**-G7-E) 4 times and finish with -0--3--0--3.

Ending chord : Am


----------------------------------------------------------------

             Am                C
Oh my father said : "Just keep silent
           Dadd9
And in the places where you've been
       F                      E
Nobody will say you've been seen."
                 Am           C
And I go to the woods once or twice a year
           Dadd9                   Fmaj7      E
And I sing "doo-doo-doo" when they shave my hair.


                  E7                      Am*
And I can see the vultures, the starving vultures
        Bb  Am**   G7   E
And the old man's ghost.
              E7                      Am*
I can see the vultures, the starving vultures
        Bb  Am**   G7   E
Killin' two white goats.


Bridge : Am Am


           Am          C
And in the big big big cities
       Dadd9 F    E
I gave all I got !
               Am            C
And I shared a secret with a stranger
             Dadd9        Fmaj7 E
For he won't say it to my fa----ther.


                  E7                      Am*
And I can see the vultures, the starving vultures
        Bb  Am**   G7   E
And the old man's ghost.
              E7                      Am*
I can see the vultures, the starving vultures
        Bb  Am**   G7   E
Killin' two white goats.


Bridge : Am-C-Dadd9-F-E
       Am-C-Dadd9-Fmaj7-E


                  E7                      Am*
And I can see the vultures, the starving vultures
        Bb  Am**   G7   E
And the old man's ghost.
              E7                      Am*
I can see the vultures, the starving vultures
        Bb  Am**   G7   E
Killin' two white goats
        Bb  Am**   G7   E
Killin' two white goats
        Bb  Am**   G7   E
Killin' two white goats
        Bb  Am**   G7   E
Killin' two white goats,
              Am
Oooh-oh-oh-oh-oh.
comments
We did not receive enough feedback on this tab! Please rate:
print report bad tab
1 2 3 4 5
I want to post or [tab]
guest
You may want to rate the tab now too:
select rating
Please do not post tabs as comments. Select "correction" instead!