Oops, an error
Loading. Please wait.

Blood Bitch chords

166 views 3 this week
no commentswrite comment
1 2 3 4 5
2 more votes to show rating
add to favorites
×
Save as Personal and add changes to this tab that will be seen only by you. Learn more ›
×
You can save this tab as Personal to edit and correct it or add notes. All changes will be seen only by you. Learn more »
launch autoscroll
font size
0
reset
transpose
0
reset
simplify chords
display chords
guitar tuner
edit
Autoscroll
slow
fast
+/-
esc
set tempo
stop
Author
Difficulty
About this tab version
Based off studio version (https://www.youtube.com/watch?v=r98vAdMVQfU). I know some of the chords have weird names and when you hover the mouse over them it looks different than what i wrote, but please bear with it, i wrote the right way of playing them to sound similar to the song, i just couldn't figure out their names. If anyone can help please comment what the correct names are. Was this info helpful? Yes No
Strumming
There is no strumming pattern for this song yet. and get +5 IQ
Chords used
  Em7     Em6     Em      Em*    CM7
e|-x-------x-------x-------x-------x-------|
B|-3-------2-------0-------0-------1-------|
G|-0-------0-------0-------3-------0-------|
D|-2-------2-------2-------2-------2-------|
A|-2-------2-------2-------2-------2-------|
E|-0-------0-------0-------0-------0-------|

********

[Intro]
e|------------------------------------------------|
B|-------3------------2-----------0------------0--|
G|----0------------0--------------0------------3--|
D|-2------------2-----------------2------------2--|
A|------------------------------------------------|
E|------------------------------------------------|

[Verse 1]
Em    CM7
Blood woman
Em6   Em7
Blood bitch
Em           CM7
There is a corona
    Em6  Em7        
A corona swelling

[Bridge]
Em  CM7  Em6 Em7

[Verse 2]
Em       CM7 
Pressing hands
 Em6         Em7
Against this scar
Em         CM7
There's no warmth
           Em6          Em7
There's no warmth to be felt

[Chorus]
Em
Sometimes it's called water
    Em
Sometimes it's called flame
          Em
(Neither) one or the other
    Em             Em7 Em6 Em Em*
Has much form or shape

[Solo]
e|------------------------------------------------|
B|-------3------------2-----------0------------0--|
G|----0------------0--------------0------------3--|
D|-2------------2-----------------2------------2--|
A|------------------------------------------------|
E|------------------------------------------------|

[Verse 4]
Em         CM7
Cold burns powerful
    Em6      Em7
Has powerful needs
Em    CM7
Holds back 
          Em6      Em7
Whispered words of fire

[Verse 5]
     Em        CM7
I'll paint the blood bitch
    Em6         Em7
The blood bitch black
Em           CM7
Lift up your heels
       Em6       Em7
You'll see burnt soles

            
            
Suggest correction
Creating personal tab
Creating personal tab
You can edit any tab online and save it as your Personal.

You can edit, replace or remove any tab part or add personal notes – all changes will be seen only by you.

Personal tabs can be accessed anytime from any device, even offline.
Learn more »
Give kudos to tab author, rate the tab!
1 2 3 4 5
comments
print report bad tab
guest
You may want to rate the tab now too:
select rating
Wanna post a correction for this tab? Suggest correction