Oops, an error
Loading. Please wait.

How To Bring A Blush To The Snow Tab

13 views 1 this week
no commentswrite comment
1 2 3 4 5
3 more votes to show rating
add to favorites
launch autoscroll
font size
0
reset
how to read this tab
guitar tuner
Autoscroll
slow
fast
+/-
esc
set tempo
stop
Help us to improve Ultimate-Guitar.com Take our survey!
×
Author
Difficulty
Artist: Cocteau Twins
Song: How to Bring a Blush to the Snow
Album: Victorialand

[Intro] Rhythm
                                               Lead plays about here
E|------------------------------------------------------------------|
B|------------------------------------------------------------------|
G|-----1-----------1-----------1------------1-----------1-----------|
D|---------2-----------2------------2-----------2-----------2-------|
A|-0-----------0-----------0------------0-----------0-----------0---|
E|------------------------------------------------------------------|

E|------------------------------------------------------------------|
B|-----------------1~-----------------------------------------------|
G|-----2-----------2-----------2------------2-----------2-----------|
D|---------3-----------3------------3-----------3-----------3-------|
A|-0-----------0-----------0------------0-----------0-----------0---|
E|------------------------------------------------------------------|

                                               Lead plays about here
E|------------------------------------------------------------------|
B|------------------------------------------------------------------|
G|-----1-----------1-----------1------------1-----------1-----------|
D|---------2-----------2------------2-----------2-----------2-------|
A|-0-----------0-----------0------------0-----------0-----------0---|
E|------------------------------------------------------------------|

E|------------------------------------------------------------------|
B|-----------------1~-----------------------------------------------|
G|-----2-----------2-----------2------------2-----------2-----------|
D|---------3-----------3------------3-----------3-----------3-------|
A|-0-----------0-----------0------------0-----------0-----------0---|
E|------------------------------------------------------------------|

                                              Lead plays about here
E|------------------------------------------------------------------|
B|------------------------------------------------------------------|
G|-----1-----------1-----------1------------1-----------1-----------|
D|---------2-----------2------------2-----------2-----------2-------|
A|-0-----------0-----------0------------0-----------0-----------0---|
E|------------------------------------------------------------------|

E|------------------------------------------------------------------|
B|-----------------1~-----------------------------------------------|
G|-----2-----------2-----------2------------2-----------2-----------|
D|---------3-----------3------------3-----------3-----------3-------|
A|-0-----------0-----------0------------0-----------0-----------0---|
E|------------------------------------------------------------------|

[Intro] Lead
E|---------------------------------|
B|--7tr-7~-------------------------|
G|---------------------------------|
D|---------------------------------|
A|---------------------------------|
E|---------------------------------|

[Chorus]
E|----------7-----------------7---------|----------5-----------------5---------|
B|--------------8-----------------8-----|--------------7-----------------7-----|
G|--------------------------------------|--------------------------------------|
D|-----9-----------------9--------------|-----7-----------------7--------------|
A|-7-----------------7------------------|-5-----------------5------------------|
E|--------------------------------------|--------------------------------------|

E|----------8-----------------8---------|----------7-----------------7---------|
B|--------------10----------------10----|--------------8-----------------8-----|
G|--------------------------------------|--------------------------------------|
D|-----10----------------10-------------|-----9-----------------9--------------|
A|-8-----------------8------------------|-7-----------------7------------------|
E|--------------------------------------|--------------------------------------|

E|----------7-----------------7---------|----------5-----------------5---------|
B|--------------8-----------------8-----|--------------7-----------------7-----|
G|--------------------------------------|--------------------------------------|
D|-----9-----------------9--------------|-----7-----------------7--------------|
A|-7-----------------7------------------|-5-----------------5------------------|
E|--------------------------------------|--------------------------------------|

E|----------8-----------------8---------|----------7-----------------7---------|
B|--------------10----------------10----|--------------8-----------------8-----|
G|--------------------------------------|--------------------------------------|
D|-----10----------------10-------------|-----9-----------------9--------------|
A|-8-----------------8------------------|-7-----------------7------------------|
E|--------------------------------------|--------------------------------------|

[Verse]
E|------------------------------------------------------------------|
B|------------------------------------------------------------------|
G|-----1-----------1-----------1------------1-----------1-----------|
D|---------2-----------2------------2-----------2-----------2-------|
A|-0-----------0-----------0------------0-----------0-----------0---|
E|------------------------------------------------------------------|

E|------------------------------------------------------------------|
B|-----------------1~-----------------------------------------------|
G|-----2-----------2-----------2------------2-----------2-----------|
D|---------3-----------3------------3-----------3-----------3-------|
A|-0-----------0-----------0------------0-----------0-----------0---|
E|------------------------------------------------------------------|

E|------------------------------------------------------------------|
B|------------------------------------------------------------------|
G|-----1-----------1-----------1------------1-----------1-----------|
D|---------2-----------2------------2-----------2-----------2-------|
A|-0-----------0-----------0------------0-----------0-----------0---|
E|------------------------------------------------------------------|

E|------------------------------------------------------------------|
B|-----------------1~-----------------------------------------------|
G|-----2-----------2-----------2------------2-----------2-----------|
D|---------3-----------3------------3-----------3-----------3-------|
A|-0-----------0-----------0------------0-----------0-----------0---|
E|------------------------------------------------------------------|

E|------------------------------------------------------------------|
B|------------------------------------------------------------------|
G|-----1-----------1-----------1------------1-----------1-----------|
D|---------2-----------2------------2-----------2-----------2-------|
A|-0-----------0-----------0------------0-----------0-----------0---|
E|------------------------------------------------------------------|

E|------------------------------------------------------------------|
B|-----------------1~-----------------------------------------------|
G|-----2-----------2-----------2------------2-----------2-----------|
D|---------3-----------3------------3-----------3-----------3-------|
A|-0-----------0-----------0------------0-----------0-----------0---|
E|------------------------------------------------------------------|

[Chorus 2]
E|----------7-----------------7---------|----------5-----------------5---------|
B|--------------8-----------------8-----|--------------7-----------------7-----|
G|--------------------------------------|--------------------------------------|
D|-----9-----------------9--------------|-----7-----------------7--------------|
A|-7-----------------7------------------|-5-----------------5------------------|
E|--------------------------------------|--------------------------------------|

E|----------8-----------------8---------|----------7-----------------7---------|
B|--------------10----------------10----|--------------8-----------------8-----|
G|--------------------------------------|--------------------------------------|
D|-----10----------------10-------------|-----9-----------------9--------------|
A|-8-----------------8------------------|-7-----------------7------------------|
E|--------------------------------------|--------------------------------------|

E|----------7-----------------7---------|----------5-----------------5---------|
B|--------------8-----------------8-----|--------------7-----------------7-----|
G|--------------------------------------|--------------------------------------|
D|-----9-----------------9--------------|-----7-----------------7--------------|
A|-7-----------------7------------------|-5-----------------5------------------|
E|--------------------------------------|--------------------------------------|

E|----------8-----------------8---------|----------7-----------------7---------|
B|--------------10----------------10----|--------------8-----------------8-----|
G|--------------------------------------|--------------------------------------|
D|-----10----------------10-------------|-----9-----------------9--------------|
A|-8-----------------8------------------|-7-----------------7------------------|
E|--------------------------------------|--------------------------------------|

[Outro] Rhythm
E|------------------------------------------------------------------|
B|------------------------------------------------------------------|
G|-----1-----------1-----------1------------1-----------1-----------|
D|---------2-----------2------------2-----------2-----------2-------|
A|-0-----------0-----------0------------0-----------0-----------0---|
E|------------------------------------------------------------------|

E|------------------------------------------------------------------|
B|------------------------------------------------------------------|
G|-----4-----------4-----------4------------4-----------4-----------|
D|---------6-----------6------------6-----------6-----------6-------|
A|-0-----------0-----------0------------0-----------0-----------0---|
E|------------------------------------------------------------------|

E|------------------------------------------------------------------|
B|------------------------------------------------------------------|
G|-----2-----------2-----------2------------2-----------2-----------|
D|---------3-----------3------------3-----------3-----------3-------|
A|-0-----------0-----------0------------0-----------0-----------0---|
E|------------------------------------------------------------------|

E|------------------------------------------------------------------|
B|------------------------------------------------------------------|
G|-----6-----------6-----------6------------6-----------6-----------|
D|---------6-----------6------------6-----------6-----------6-------|
A|-0-----------0-----------0------------0-----------0-----------0---|
E|------------------------------------------------------------------|
Repeated four times

[Outro] Lead
E|------------------------|
B|-5---5~------5---5~-----|
G|------------------------|
D|------------------------|
A|------------------------|
E|------------------------|

E|-----------------------|
B|-12--12~---------------|
G|-----------------------|
D|-----------------------|
A|-----------------------|
E|-----------------------|

E|-----------------------------------------|
B|-10--10----12--12-----13--13----15--15---|
G|-----------------------------------------|
D|-----------------------------------------|
A|-----------------------------------------|
E|-----------------------------------------|

E|---------------------------------|
B|-14--14----9---9------5---5~-----|
G|---------------------------------|
D|---------------------------------|
A|---------------------------------|
E|---------------------------------|
Repeated four times too, of course.

********************************************************

| ~   vibrato

********************************************************
Suggest correction
Give kudos to tab author, rate the tab!
1 2 3 4 5
comments
print report bad tab
guest
You may want to rate the tab now too:
select rating
Wanna post a correction for this tab? Suggest correction