Oops, an error
Loading. Please wait.

Wolf In The Breast tab

1,060 views 6 this week
no commentswrite comment
1 2 3 4 5
1 last vote to show rating
add to favorites
×
Save as Personal and add changes to this tab that will be seen only by you. Learn more ›
×
You can save this tab as Personal to edit and correct it or add notes. All changes will be seen only by you. Learn more »
launch autoscroll
font size
0
reset
how to read this tab
guitar tuner
edit
Autoscroll
slow
fast
+/-
esc
set tempo
stop
Author
Difficulty
Cocteau Twins, Wolf in the Breast
Drop D Tuning
Typical Cocteau effects: chorus, lots of delay, reverb

 Verse - 1st guitar, the main arpeggio                                                        
||------------------|------------------|------------------|------------------|| 
||-------0----------|-------0----------|-------0----------|-------0----------|| 
||-----6-----6------|-----1-----1------|-----2-----2------|-----2-----2------|| 
||---7---------7----|---2---------2----|---4---------4----|---4---------4----|| 
||-0-------------0--|-0-------------2--|------------------|---------------0--|| 
||------------------|------------------|-0-------------0--|-0----------------|| 

Chorus - 1st guitar arpeggio            

||------------------|------------------|-------------------|------------------|| 
||-------0----------|-------0----------|-------0-----------|-------0----------|| 
||-----6-----6------|-----5-----5------|-----2-----2-------|-----1-----1------|| 
||---7---------7----|---7---------7----|---4---------4-----|---2---------2----|| 
||-0-------------0--|-0-------------0--|-------------------|---------------2--|| 
||------------------|------------------|-0--------------0--|-2----------------|| 

Chorus - 2nd guitar (prominent in youtubes Live Soundboard Remaster version)
||-9--9--9--9---|-7---7---7---7|-5---5---5---5-|-4---4---4---4|| 
||--10-10-10----|---9---9---9--|---7---7---7---|---5---5---5--|| 
||--------------|--------------|---------------|--------------|| 
||--------------|--------------|---------------|--------------|| 
||--------------|--------------|---------------|--------------|| 
||--------------|--------------|---------------|--------------|| 

Chorus, bass guitar line
||--------------|--------------|---------------|--------------|| 
||--------------|--------------|---------------|--------------|| 
||--------------|--------------|---------------|--------------|| 
||--------------|--------------|---------------|--------------|| 
||--4--4--5--5--|-7--7--10-----|--5----7----9--|2-----4-----5-|| 
||--------------|--------------|---------------|--------------|| 

Bridge, straight after chorus, around 2:15 - main guitar arpeggio, faster tempo
                                                D
||--------------|--------------|---------------|---5------5---|| 
||----0-----0---|----0------0--|----0-------0--|----7------7--|| 
||---7-7---7-7--|---6-6----6-6-|---5-5-----5-5-|--7------7----|| 
||--7-----7-----|--7------7----|--7------7-----|-7------7-----|| 
||-0-----0------|-0------0-----|-0------0------|5------5------|| 
||--------------|--------------|---------------|--------------|| 

Bridge - 2nd guitar (these parts work well together, play both and you will hear it)  
                                                D
||--------------|--------------|---------------|--------------|| 
||--10--9--7-5--|--------5-5---|------8--7--5--|3-------------|| 
||-9--9--9------|--2-2---5-5---|----9--7--7----|2-------------|| 
||--------------|--2-2---------|---------------|--------------|| 
||--------------|--------------|---------------|--------------|| 
||--------------|--------------|---------------|--------------|| 

Then end with the Chorus part
Suggest correction
Creating personal tab
Creating personal tab
You can edit any tab online and save it as your Personal.

You can edit, replace or remove any tab part or add personal notes – all changes will be seen only by you.

Personal tabs can be accessed anytime from any device, even offline.
Learn more »
Give kudos to tab author, rate the tab!
1 2 3 4 5
comments
print report bad tab
guest
You may want to rate the tab now too:
select rating
Wanna post a correction for this tab? Suggest correction