Oops, an error
Loading. Please wait.

Hielo En Las Rocas tab

by Coda
85 views 1 this week
no commentswrite comment
1 2 3 4 5
3 more votes to show rating
add to favorites
×
Save as Personal and add changes to this tab that will be seen only by you. Learn more ›
×
You can save this tab as Personal to edit and correct it or add notes. All changes will be seen only by you. Learn more »
launch autoscroll
font size
0
reset
how to read this tab
guitar tuner
edit
Autoscroll
slow
fast
+/-
esc
set tempo
stop
hIeLo eN lAs rOsAs    tE Am0oO Mi nIñA ErMoXaA


RE M   RE sus2   MI m   Do M    Sol M   Si m    La m

e---2---/---0---/---0---/---0---/---3---/---2---/---0---
B---3---/---3---/---0---/---1---/---3---/---3---/---1---
G---2---/---2---/---0---/---0---/---0---/---4---/---2---
D---0---/---0---/---2---/---2---/---0---/---4---/---2---
A-------/-------/---2---/---3---/---2---/---2---/---0---
E-------/-------/---0---/---3---/---3---/---2---/---x---


Intro.

figura #1.

e------------5--/------------5--/---4-----------/---4-----------
B------3--------/------3--------/------5-----5--/------5-----5--
G---------4-----/---------4-----/---------6-----/---------6-----
D---4-----------/---4-----------/---6-----------/---6-----------  X 2
A---------------/---------------/---------------/---------------
E---------------/---------------/---------------/---------------


se escucha el sonido de los platillos


los unicos acordes serian : ReM,Re sus2,ReM,Re sus2,Mim,ReM,DoM

e---2-2-2-2-2---0-0-0---2-2-2-2-2---0-0-0-0-0-0-0---0-0---2---0-0-0-0
B---3-3-3-3-3---3-3-3---3-3-3-3-3---3-3-3-3-3-3-3---0-0---3---1-1-1-1
G---2-2-2-2-2---2-2-2---2-2-2-2-2---2-2-2-2-2-2-2---0-0---2---0-0-0-0
D---0-0-0-0-0---0-0-0---0-0-0-0-0---0-0-0-0-0-0-0---2-2---0---2-2-2-2
A---X-X-X-X-X---X-X-X---X-X-X-X-X---X-X-X-X-X-X-X---2-2---X---3-3-3-3
E---X-X-X-X-X---X-X-X---X-X-X-X-X---X-X-X-X-X-X-X---0-0---X---3-3-3-3


al comenzar a cantar deben utilizar la fig num 2

He corrido tanto y siento estar en en mismo lugar
todo se mueve y camina y yo sigo aqui


*Aqui viene la figura #3


los demas akordes seran : SolM,ReM,Mim,DoM,Sim,Lam
 y Mi m la segunda vez
cuanod termina de decir hielo en las rosas


e---3-3---2-2---0-0-0-0-0---0-0-0---2-2---0-0-0-0-0---
B---3-3---3-3---0-0-0-0-0---1-1-1---3-3---1-1-1-1-1---
G---0-0---2-2---0-0-0-0-0---0-0-0---4-4---2-2-2-2-2---
D---0-0---0-0---2-2-2-2-2---2-2-2---4-4---2-2-2-2-2---
A---2-2---x-x---2-2-2-2-2---3-3-3---2-2---0-0-0-0-0---
E---3-3---x-x---0-0-0-0-0---3-3-3---2-2---x-x-x-x-x---

 lo de arriva se toka kuando kanta


Lo que me rodea logra detenerme
oculta la belleza con hielo en las rosas.


la siguiente figura es la num  4


los akordes van a hacer : ReM,Mim,SolM,ReM


e---2-2-2--0-0--3--2
B---3-3-3--0-0--3--3
G---2-2-2--0-0--0--2
D---0-0-0--2-2--0--0
A---X-X-X--2-2--2--X
E---X-X-X--0-0--3--X


aki komienza la fig.. numero  2


los akordez seran : ReM,Re sus2,ReM,Re sus2,Mim,ReM,DoM


e---2-2-2-2-2---0-0-0---2-2-2-2-2---0-0-0-0-0-0-0---0-0---2---0-0-0-0
B---3-3-3-3-3---3-3-3---3-3-3-3-3---3-3-3-3-3-3-3---0-0---3---1-1-1-1
G---2-2-2-2-2---2-2-2---2-2-2-2-2---2-2-2-2-2-2-2---0-0---2---0-0-0-0
D---0-0-0-0-0---0-0-0---0-0-0-0-0---0-0-0-0-0-0-0---2-2---0---2-2-2-2
A---X-X-X-X-X---X-X-X---X-X-X-X-X---X-X-X-X-X-X-X---2-2---X---3-3-3-3
E---X-X-X-X-X---X-X-X---X-X-X-X-X---X-X-X-X-X-X-X---0-0---X---3-3-3-3


Ya no hay una cara nueva con una esperanza
los momentos son intensos y me doblegan


aki ahi ina variazion  kontinua la figura num 3

los akordes de aki seran : SolM,ReM,Mim,DoM,Sim,Lam
y Mi m la segunda vez
cuando termina de decir hielo en las rosas


e---3-3---2-2---0-0-0-0-0---0-0-0---2-2---0-0-0-0-0---
B---3-3---3-3---0-0-0-0-0---1-1-1---3-3---1-1-1-1-1---
G---0-0---2-2---0-0-0-0-0---0-0-0---4-4---2-2-2-2-2---
D---0-0---0-0---2-2-2-2-2---2-2-2---4-4---2-2-2-2-2---
A---2-2---x-x---2-2-2-2-2---3-3-3---2-2---0-0-0-0-0---
E---3-3---x-x---0-0-0-0-0---3-3-3---2-2---x-x-x-x-x---

la figura ke ven arriva se toka kon la letra de abajo

Lo que me rodea logra detenerme
oculta la belleza con hielo en las rosas.


aki el wey kontinua kantando

Con DoM,Sim,DoM,Sim,DoM,Sim,DoM y Mim


Cada dia al andar con mi guitarra a llorar
ohuo u ho u ho .......

SE REPITE  UNA CONVINACION DE LA FIG 2 Y 4

e---2-2-2--0-0--3--2---2-2-2-2---0-0-0---2-2-2-2---
B---3-3-3--0-0--3--3---3-3-3-3---3-3-3---3-3-3-3---
G---2-2-2--0-0--0--2---2-2-2-2---2-2-2---2-2-2-2---
D---0-0-0--2-2--0--0---0-0-0-0---0-0-0---0-0-0-0---
A---X-X-X--2-2--2--X---x-x-x-x---x-x-x---x-x-x-x---
E---X-X-X--0-0--3--X---x-x-x-x---x-x-x---x-x-x-x---

AKI ENTRA EL SOLO PERO ESA PARTE LA PONGO EN OTRA

despues le siguen kn lo ke ya les dije ke va despues
del solo

e---2-2-2--0-0--3--2---2-2-2-2---0-0-0---2-2-2-2---
B---3-3-3--0-0--3--3---3-3-3-3---3-3-3---3-3-3-3---
G---2-2-2--0-0--0--2---2-2-2-2---2-2-2---2-2-2-2---
D---0-0-0--2-2--0--0---0-0-0-0---0-0-0---0-0-0-0---
A---X-X-X--2-2--2--X---x-x-x-x---x-x-x---x-x-x-x---
E---X-X-X--0-0--3--X---x-x-x-x---x-x-x---x-x-x-x---

aki el wey sigue kantando ( LO KE ME RODEA LOGRA DETERME
OKULTA LA BELLEZA  KON HIELO EN LAS ROSAS)

hacen lo de abajo

e---3-3---2-2---0-0-0-0-0---0-0-0---2-2---0-0-0-0-0---
B---3-3---3-3---0-0-0-0-0---1-1-1---3-3---1-1-1-1-1---
G---0-0---2-2---0-0-0-0-0---0-0-0---4-4---2-2-2-2-2---
D---0-0---0-0---2-2-2-2-2---2-2-2---4-4---2-2-2-2-2---
A---2-2---x-x---2-2-2-2-2---3-3-3---2-2---0-0-0-0-0---
E---3-3---x-x---0-0-0-0-0---3-3-3---2-2---x-x-x-x-x---

y ya pues lo demas se repite

y terminan kon la figura num : 4

e---2-2-2--0-0--3--2
B---3-3-3--0-0--3--3
G---2-2-2--0-0--0--2
D---0-0-0--2-2--0--0
A---X-X-X--2-2--2--X
E---X-X-X--0-0--3--X


ESPERO KE LES HAIA GUSTADO MI COLABORACION
ME TARDE 4 DIAS PERO AHI ESTA
OJALA KE LES FUNCIONE

TODO ESTO SE LO DEDICO A MI NIÑA HERMOXA
 " YULI TE  AM0O" TU LO SABES NIÑA ERMOXA
TE AM0O0O  ERES MI RAZON DE VIVIR


WENO YA ME DESPIDO MI NOMBRE ES MIGUEL ANGEL ZAVALA LEYVA

AHI LES DEJO MI CORREO PARA ALGUNA KEJA O SUJERENCIA

            
            
Suggest correction
Creating personal tab
Creating personal tab
You can edit any tab online and save it as your Personal.

You can edit, replace or remove any tab part or add personal notes – all changes will be seen only by you.

Personal tabs can be accessed anytime from any device, even offline.
Learn more »
Give kudos to tab author, rate the tab!
1 2 3 4 5
comments
print report bad tab
guest
Wanna post a correction for this tab? Suggest correction