Oops, an error
Loading. Please wait.

Si Te Tuviera Aqui tab

version 2
version 2

Whole song

by Coda
158 views 1 this week
no commentswrite comment
1 2 3 4 5
3 more votes to show rating
add to favorites
×
Save as Personal and add changes to this tab that will be seen only by you. Learn more ›
×
You can save this tab as Personal to edit and correct it or add notes. All changes will be seen only by you. Learn more »
launch autoscroll
font size
0
reset
how to read this tab
guitar tuner
edit
Autoscroll
slow
fast
+/-
esc
set tempo
stop
intro
D#  G#  Cm  Gm  G#  A#

D#
oh oh oh oh
G#
oh oh oh oh
Cm    Gm    G#  A#
oh oh oh oh

    C                                         F
e|--------------------------------------------------------|
B|--------------------------------------------------------|
G|--------------------------------------------------------|
D|--------------1-------------1-------------1-3-3-1---3---|
A|--3-3-1---1-3---3-3-1---1-3---3-3-1---1-3---------3-----|
E|--------3-------------3-------------3-------------------|


      Cm (riff 1)
mi almohada no puede vencer
   Gm (riff 2)
la melancolia de mi padecer
G#            A#
y yo como un iluso 
          Cm
solo te dibujo en mi mente

Cm (riff 1)
moriria por tener
Gm (riff 2)
entre mis brazos tus sueños tu piel
G#                       D#
y por creer que estaras ahi para siempre
  G#      A#
ahora le digo a mi soledad que

       D#
si te tubiera aqui
                G#
envenenaria tu aliento
                    Cm
con mis besos y con todo mi cuerpo
Gm            G#      A#
solo si te tubiera aqui
G#    A#
oh oh oh
        Cm       A#
si te tubiera aqui
G#    A#     Cm
oh oh oh, aqui

Cm (riff 1)
tomaria tu cintura
Gm (riff 2) 
entre salvaje y delicadamente
G#                A#            Cm
para estrecharte con todo el deseo de mi piel

Cm (riff 1)
y perdido en tu figura
Gm (riff 2)
te haria sentir como a otra vida
G#                       D#
esta agonia que estoy pasando sin ti (sin verte)
G#         A#
aho..ra le grito a mi soledad que

         D#
si te tubiera aqui
                  G#
envenenaria tu aliento
                     Cm
con mis besos y con todo mi cuerpo
Gm            G#    A#
solo si te tubiera aqui
G#
uh te entregaria mi vida
                              Cm
para que me sintiera cerca de ti


solo (acompañamiento)
G#  D#   Fm   Gm G#
Fm Gm G#
Fm Gm G# A#


G#    A#
oh oh oh
        Cm      A#
si te tubiera aqui
G#    A#     Cm
oh oh oh, aqui


         D#
si te tubiera aqui
                  G#
envenenaria tu aliento
                     Cm
con mis besos y con todo mi cuerpo
Gm            G#    A#
solo si te tubiera aqui
         D#
si te tubiera aqui
                  G#
envenenaria tu aliento
                     Cm
con mis besos y con todo mi cuerpo
Gm            G#    A#
solo si te tubiera aqui


D#         G#
   si te tubiera aqui
Cm  Gm         G#    A#
    oh si te tubiera aqui
D#         G#
   si te tubiera aqui
Cm  Gm         G#    A#
    oh si te tubiera aqui


riff 1
    Cm                           
e|------------------------------|
B|------------------------------|
G|------------------------------|
D|--------------1-------------1-|
A|--3-3-1---1-3---3-3-1---1-3---|
E|--------3-------------3-------|


riff 2
       Gm
e|------------------------------------|
B|------------------------------------|
G|------------------------------------|
D|------------------------------------|
A|-----------5---6-------------5---6--|
E|--3--3-6-3---3------3--3-6-3---3----|

CHORDS UTILIZADOS
    D#  G#  Cm  Gm  A#  Fm
e|--x----x---x---x---x---x------------------|
B|--x----x---4---x---x---x------------------|
G|--8----5---5---3---7---1------------------|
D|--8----6---5---5---8---2------------------|
A|--6----6---3---5---8---2------------------|
E|--x----4---x---3---6---1------------------|
Suggest correction
Creating personal tab
Creating personal tab
You can edit any tab online and save it as your Personal.

You can edit, replace or remove any tab part or add personal notes – all changes will be seen only by you.

Personal tabs can be accessed anytime from any device, even offline.
Learn more »
Give kudos to tab author, rate the tab!
1 2 3 4 5
comments
print report bad tab
guest
Wanna post a correction for this tab? Suggest correction