Oops, an error
Loading. Please wait.

Alert Aware Involved Tab

version 1
version 1

Whole song

by Code
387 views 1 this week
no commentswrite comment
1 2 3 4 5
please rate
add to favorites
launch autoscroll
font size
0
reset
how to read this tab
guitar tuner
Autoscroll
slow
fast
+/-
esc
set tempo
stop
Help us to improve Ultimate-Guitar.com Take our survey!
×
this is for all you punkies out there! if u don't like it u can suck my d***

artist: the code
song: alert, aware, involved
tabbed by: omar torres, hell yeah!!!!!!!!!!!!

*= palm mute

intro x2
e-----------------------------------------------------------
b-----------------------------------------------------------
g--6-6-4-6-6--4-4---------6-6-4-6-6-------------------------
d--6-6-4-6-6--4-4-6-6-6---6-6-4-6-6--6-6-6-7-7--------------
a--4-4-2-4-4--2-2-6-6-6---4-4-2-4-4--6-6-6-7-7--------------
e-----------------4-4-4--------------4-4-4-5-5-------------- 

e---------------------------------------------
b---------------------------------------------
g---------------------------------------------
d-4-4-4-4-6--6-6-6-6---7-7-7-7-9--9-9-9-9----- 
a-4-4-4-4-6--6-6-6-6---7-7-7-7-9--9-9-9-9-----
e-2-2-2-2-4--4-4-4-4---5-5-5-5-7--7-7-7-7-----

riff 1 x2
e--9-9-9-9-9--9-9-9-9-9--9-9-9-9-9-9-10-10-9-10-9-
b--9-9-9-9-9--9-9-9-9-9--9-9-9-9-9-9-10-10-9-10-9-
g-------------------------------------------------
d-------------------------------------------------
a-------------------------------------------------
e-------------------------------------------------

e-------------------------------------------------
b-------------------------------------------------
g-------------------------------------------------
d-4-4-4-4-6--6-6-6-6---7-7-7-7-9--9-9-9-9---------
a-4-4-4-4-6--6-6-6-6---7-7-7-7-9--9-9-9-9---------
e-2-2-2-2-4--4-4-4-4---5-5-5-5-7--7-7-7-7---------

chorous
e------------------------------------------------------
b------------------------------------------------------
g-6-6-6-6-6--6-6-6-6-6---------------------------------
d-6-6-6-6-6--6-6-6-6-6--7-7-7-7-4-4-4-4-9-9-9-9--7-9---
a-4-4-4-4-4--4-4-4-4-4--7-7-7-7-4-4-4-4-9-9-9-9--7-9---
e-----------------------5-5-5-5-2-2-2-2-7-7-7-7--5-7---

e--------------------------------------------------------------------
b--------------------------------------------------------------------
g-6-6-6-6-6--6-6-6-6-6-----------------------------------------------
d-6-6-6-6-6--6-6-6-6-6--*7-*7-*7-*7-*4-*4-*4-*4-*9-*9-*9-*9--*7-*9---
a-4-4-4-4-4--4-4-4-4-4--*7-*7-*7-*7-*4-*4-*4-*4-*9-*9-*9-*9--*7-*9---
e-----------------------*5-*5-*5-*5-*2-*2-*2-*2-*7-*7-*7-*7--*5-*7---

e------------------------------------------------------
b------------------------------------------------------
g-6-6-6-6-6--6-6-6-6-6---------------------------------
d-6-6-6-6-6--6-6-6-6-6--7-7-7-7-4-4-4-4-9-9-9-9--7-9---
a-4-4-4-4-4--4-4-4-4-4--7-7-7-7-4-4-4-4-9-9-9-9--7-9---
e-----------------------5-5-5-5-2-2-2-2-7-7-7-7--5-7---

e------------------------------------------------------
b------------------------------------------------------
g-6-6-6-6-6--6-6-6-6-6--11-9-6-4-6-4-11----------------
d-6-6-6-6-6--6-6-6-6-6--11-9-6-4-6-4-11----------------
a-4-4-4-4-4--4-4-4-4-4--9--7-4-2-4-2-9-----------------
e------------------------------------------------------

riff 1 x2

chorous 2
e------------------------------------------------------
b------------------------------------------------------
g-6-6-6-6-6--6-6-6-6-6---------------------------------
d-6-6-6-6-6--6-6-6-6-6--7-7-7-7-4-4-4-4-9-9-9-9--7-9---
a-4-4-4-4-4--4-4-4-4-4--7-7-7-7-4-4-4-4-9-9-9-9--7-9---
e-----------------------5-5-5-5-2-2-2-2-7-7-7-7--5-7---

e--------------------------------------------------------------------
b--------------------------------------------------------------------
g-6-6-6-6-6--6-6-6-6-6-----------------------------------------------
d-6-6-6-6-6--6-6-6-6-6--*7-*7-*7-*7-*4-*4-*4-*4-*9-*9-*9-*9--*7-*9---
a-4-4-4-4-4--4-4-4-4-4--*7-*7-*7-*7-*4-*4-*4-*4-*9-*9-*9-*9--*7-*9---
e-----------------------*5-*5-*5-*5-*2-*2-*2-*2-*7-*7-*7-*7--*5-*7---

e------------------------------------------------------
b------------------------------------------------------
g-6-6-6-6-6--6-6-6-6-6---------------------------------
d-6-6-6-6-6--6-6-6-6-6--7-7-7-7-4-4-4-4-9-9-9-9--7-9---
a-4-4-4-4-4--4-4-4-4-4--7-7-7-7-4-4-4-4-9-9-9-9--7-9---
e-----------------------5-5-5-5-2-2-2-2-7-7-7-7--5-7---

e------------------------------------------------------
b------------------------------------------------------
g-6-6-6-6-6--6-6-6-6-6--11-9-6-4--11-9-4-6-------------
d-6-6-6-6-6--6-6-6-6-6--11-9-6-4--11-9-4-6--7-9--------
a-4-4-4-4-4--4-4-4-4-4--9--7-4-2--9--7-2-4--7-9--------
e-------------------------------------------5-7--------

riff 2
e--------------------------------------------------------
b---------------------------------------------------------
g-7-7-7-10-7-9-7-10-7-9--several times--------------------
d---------------------------------------------------------
a---------------------------------------------------------
e---------------------------------------------------------

then play the second chorous and that's all!!!!!!
Suggest correction new What's this?
You can suggest a correction to this tab. Community and Mods will review your correction and vote to approve or reject it.
comments
We did not receive enough feedback on this tab! Please rate:
print report bad tab
1 2 3 4 5
guest
You may want to rate the tab now too:
select rating
Please do not post tabs as comments. Select "correction" instead!