Oops, an error
Loading. Please wait.

Alert Aware Involved Tab

version 2
version 2

Whole song

by Code
456 views 1 this week
no commentswrite comment
1 2 3 4 5
2 more votes to show rating
add to favorites
launch autoscroll
font size
0
reset
how to read this tab
guitar tuner
Autoscroll
slow
fast
+/-
esc
set tempo
stop
Help us to improve Ultimate-Guitar.com Take our survey!
×
P.M. - Palm Muting
/    - Slide
X    - mute


The Code – Alert Aware Involved

Intro

E---------------------|
H---------------------|
G---------------------|
D-1111911-11-9-99-6-6-|
A-1111911-11-9-99-6-6-|
E—9-9-7-9--9-7-77-4-4-|

E---------------------|
H---------------------|
G---------------------|
D-1111911-11-6-6-67-7-|                                 (2x)
A-1111911-11-6-6-67-7-|
E—9-9-7-9--9-4-4-45-5-|

E-----------------------------|
H-----------------------------|
G-----------------------------|
D-4-4446-666666-7-7779-999999-|
A-4-4446-666666-7-7779-999999-|
E-2-2224-444444-5-5557-777777-|

Verse 1

E--------------------------------------------|
H-999-9-999-9-9-999-9-9-9-9/10~109/10~10-----|
G-888-8-888-8-8-888-8-8-8-8/-9~-98/-9~9------|
D--------------------------------------------|
A--------------------------------------------|
E--------------------------------------------|
                                                        (2x)
E-----------------------------|
H-----------------------------|
G-----------------------------|
D-4-4446-666666-7-7779-999999-|
A-4-4446-666666-7-7779-999999-|
E-2-2224-444444-5-5557-777777-|

Chorus

E----------------------------------------------------------|
H----------------------------------------------------------|
G-66666-66666----9-----------66666-66666-2222------4444-5~-|
D-66666-66666-7--9--9--6-7-9-66666-66666-2222-2222-4444-5~-|
A-44444-44444-7--7--9--6-7-9-44444-44444-0000-2222-2222-3~-|
E-------------5-----7--4-5-7------------------0000---------|
                                     P.M................

E------------------------------------------------------|
H------------------------------------------------------|
G-66666-66666----9-----------66666-66666-11--9-8---9-8-|
D-66666-66666-7--9--9--6-7-9-66666-66666-11--9-8-9-9-8-|
A-44444-44444-7--7--9--6-7-9-44444-44444--9--7-6-9-7-6-|
E-------------5-----7--4-5-7---------------------7-----|

Verse 2

E-------------------------------------------|
H-999-9-999-9-9-999-9-9-9-9/10~109/10~10----|
G-888-8-888-8-8-888-8-8-8-8/-9~-98/-9~9-----|
D-------------------------------------------|
A-------------------------------------------|
E-------------------------------------------|
                                                        (2x)
E-----------------------------|
H-----------------------------|
G-----------------------------|
D-4-4446-666666-7-7779-999999-|
A-4-4446-666666-7-7779-999999-|
E-2-2224-444444-5-5557-777777-|

Chorus

E----------------------------------------------------------|
H----------------------------------------------------------|
G-66666-66666----9-----------66666-66666-2222------4444-5~-|
D-66666-66666-7--9--9--6-7-9-66666-66666-2222-2222-4444-5~-|
A-44444-44444-7--7--9--6-7-9-44444-44444-0000-2222-2222-3~-|
E-------------5-----7--4-5-7------------------0000---------|
                                      P.M..............

E----------------------------------------------------|
H----------------------------------------------------|
G-66666-66666----9-----------66666-66666-11--9-8-----|
D-66666-66666-7--9--9--6-7-9-66666-66666-11--9-8-9~~-|
A-44444-44444-7--7--9--6-7-9-44444-44444--9--7-6-9~~-|
E-------------5-----7--4-5-7---------------------7~~-|

E-----------------------------------------------------------------|
H-----------------------------------------------------------------|
G-11--9-8-9~~----------------------------------------6~~~~~~~~~~~-|
H-11--9-8-9~~911-------------------------------------6~~~~~~~~~~~-|
A--9--7-6-7~~911-------------------------------------4~~~~~~~~~~~-|
E------------7-9--------------------------------------------------|

Bridge

E--------------------------------------------------------------------|
H--------------------------------------------------------------------|
G----------------------------*-------------------------------11--9-8-|
D--111113111114(7x)1111131111141111131111141111131111119-----11--9-8-|
A-------------------------------------------------------------9--7-6-|
E--------------------------------------------------------------------|
P.M..........................

*Sound

Chorus

E----------------------------------------------------------|
H----------------------------------------------------------|
G-66666-66666----9-----------66666-66666-2222------4444-5~-|
D-66666-66666-7--9--9--6-7-9-66666-66666-2222-2222-4444-5~-|
A-44444-44444-7--7--9--6-7-9-44444-44444-0000-2222-2222-3~-|
E-------------5-----7--4-5-7------------------0000---------|
                                     P.M...............

E----------------------------------------------------|
H----------------------------------------------------|
G-66666-66666----9-----------66666-66666-11--9-8-----|
D-66666-66666-7--9--9--6-7-9-66666-66666-11--9-8-9~~-|
A-44444-44444-7--7--9--6-7-9-44444-44444--9--7-6-9~~-|
E-------------5-----7--4-5-7---------------------7~~-|

E------------------|
H------------------|
G-11--9-8-9~~------|
H-11--9-8-9~~91111-|
A--9--7-6-7~~91111-|
E------------7-9-9-|
Suggest correction
Give kudos to tab author, rate the tab!
1 2 3 4 5
comments
print report bad tab
guest
You may want to rate the tab now too:
select rating
Wanna post a correction for this tab? Suggest correction