Oops, an error
Loading. Please wait.

Story Of My Life Tab

by Code
486 views 1 this week
no commentswrite comment
1 2 3 4 5
please rate
add to favorites
launch autoscroll
font size
0
reset
how to read this tab
guitar tuner
Autoscroll
slow
fast
+/-
esc
set tempo
stop
Help us to improve Ultimate-Guitar.com Take our survey!
×
-------------------------------------------------------------------------------
                             STORY OF MY LIFE - THE CODE
-------------------------------------------------------------------------------
I'am quite sure it's right if u have any questions email me.
Tabbed by:Jorge Wong
Email:lilsk8monkey@hotmail.com

*=Palm Mute
Tuning:EADGBE i don't know if this is the tuning but it's sounds great anyway

Intro
e|---------------------------------------------------------------------------|
B|---------------------------------------------------------------------------|
G|--6-*6*6--6-6-----------------4--*4*4--4-4---------------------------------|
D|--6-*6*6--6-6--7--*7*7--7-7---4--*4*4--4-4--4--*4*4--4-4---repeat----------|
A|--4-*4*4--4-4--7--*7*7--7-7---2--*2*2--2-2--4--*4*4--4-4-----2X------------|
E|---------------5--*5*5--5-5-----------------2--*2*2--2-2-------------------|

e|---------------------------------------------------------------------------|
B|---------------------------------------------------------------------------|
G|--6-6-6---------9-9-9-----------repeat-------------------------------------|
D|--6-6-6--7-7-7--9-9-9--9-9-9------4X---------------------------------------|
A|--4-4-4--7-7-7--7-7-7--9-9-9-----------------------------------------------|
E|---------5-5-5---------7-7-7-----------------------------------------------|

  0:20 Begins singing
  Verse 1
e|---------------------------------------------------------------------------|
B|---------------------------------------------------------------------------|
G|--6-6-6---------9-9-9---------repeat---------------------------------------|
D|--6-6-6--7-7-7--9-9-9--9-9-9----4X-----------------------------------------|
A|--4-4-4--7-7-7--7-7-7--7-7-7-----------------------------------------------|
E|---------5-5-5---------7-7-7-----------------------------------------------|

  Chorus 0:30                           Chorus Ends
e|-------------------------------------|-------------------------------------|
B|-------------------------------------|-------------------------------------|
G|--6-6-6-----------------------repeat-|--6-6-6------------------------------|
D|--6-6-6--7-7-7--6-6-6--7-7-7----4X---|--6-6-6--7-7-7--4-4-4--6-6-6--repeat-|
A|--4-4-4--7-7-7--6-6-6--7-7-7---------|--4-4-4--7-7-7--4-4-4--6-6-6---4X----|
E|---------5-5-5--4-4-4--5-5-5---------|---------5-5-5--2-2-2--4-4-4---------|

Repeat Verse 1 4X |Then repeat All Chorus

Verse 2
e|---------------------------------------------------------------------------|
B|---------------------------------------------------------------------------|
G|--*6*6--6--*6*6--6--*6-------------------------*4*4--4--*4*4--4-4----------|
D|--*6*6--6--*6*6--6--*6--*7*7--7--*7*7--7--*7---*4*4--4--*4*4--4-4----------|
A|--*4*4--4--*4*4--4--*4--*7*7--7--*7*7--7--*7---*2*2--2--*2*2--2-2----------|
E|------------------------*5*5--5--*5*5--5--*5-------------------------------|

e|---------------------------------------------------------------------------|
B|---------------------------------------------------------------------------|
G|------------------------repeat---------------------------------------------|
D|--*4*4--4--*4*4--4-4------2X-----------------------------------------------|
A|--*4*4--4--*4*4--4-4-------------------------------------------------------|
E|--*2*2--2--*2*2--2-2-------------------------------------------------------|

e|---------------------------------------------------------------------------|
B|---------------------------------------------------------------------------|
G|--*6*6--6--*6*6--6--*6-------------------------*9*9--9--*9*9--9-9----------|
D|--*6*6--6--*6*6--6--*6--*7*7--7--*7*7--7--*7---*9*9--9--*9*9--9-9----------|
A|--*4*4--4--*4*4--4--*4--*7*7--7--*7*7--7--*7---*7*7--7--*7*7--7-7----------|
E|------------------------*5*5--5--*5*5--5--*5-------------------------------|

e|---------------------------------------------------------------------------|
B|-------------------------repeat--------------------------------------------|
G|---------------------------2X----------------------------------------------|
D|--*9*9--9--*9*7--9-*9------------------------------------------------------|
A|--*9*7--7--*7*7--7-*9------------------------------------------------------|
E|--*7*7--7--*7*7--7-*7------------------------------------------------------|

Repeat Verse1 4X |Then repeat all chorus

 Finish with this
e|---------------------------------------------------------------------------|
B|---------------------------------------------------------------------------|
G|--6------------------------------------------------------------------------|
D|--6---Let-Ring-------------------------------------------------------------|
A|--4------------------------------------------------------------------------|
E|---------------------------------------------------------------------------|

Enjoy PUNKS!!!
===============================================================================
Suggest correction
What's this?
You can suggest a correction to this tab. Community and Mods will review your correction and vote to approve or reject it.
comments
We did not receive enough feedback on this tab! Please rate:
print report bad tab
1 2 3 4 5
guest
You may want to rate the tab now too:
select rating
Please do not post tabs as comments. Select "correction" instead!