Oops, an error
Loading. Please wait.

Alone Tab

47 views 1 this week
no commentswrite comment
1 2 3 4 5
3 more votes to show rating
add to favorites
launch autoscroll
font size
0
reset
how to read this tab
guitar tuner
Autoscroll
slow
fast
+/-
esc
set tempo
stop
Help us to improve Ultimate-Guitar.com Take our survey!
×
Author
Difficulty
intermediate
A song by me and my band

INTRO


E---------------------------------------------------|
B---------------------------------------------------|
G---------------------------------------------------|
D----------2--2--------------------2--2-------------|
A---4--4--0--0--2--2--2--2--4--4--0--0---2--2--2--2-|
E--2--2--------0--0--0--0--2--2---------0--0--0--0--|


VERSE

guitar 1
E---------------------------------------------------|
B---------------------------------------------------|
G---------------------------------------------------|
D----------2--2--------------------2--2-------------|  X2
A---4--4--0--0--2--2--2--2--4--4--0--0---2--2--2--2-|
E--2--2--------0--0--0--0--2--2---------0--0--0--0--|

guitar 2
E---------------------------------------------------|
B--0------3----0--0--------0------3-----0--0--------|
G--0------2----2--2--------0------2-----2--2--------|
D--0------0----2--2--------0------0-----2--2--------|  X2
A--2------0----0--0--------2------0-----0--0--------|
E--3-----------------------3------------------------|


CHORUS

E---------------------------------------------------|
B---------------------------------------------------|
G---------------------------------------------------|
D--------------2--2--2--2---------------------------|  X4
A--4--4--4--4--0--0--0--0--2--2--2--2--2--2--2--2---|
E--2--2--2--2--------------0--0--0--0--0--0--0--0---|


VERSE

guitar 1
E---------------------------------------------------|
B---------------------------------------------------|
G---------------------------------------------------|
D----------2--2--------------------2--2-------------|  X2
A---4--4--0--0--2--2--2--2--4--4--0--0---2--2--2--2-|
E--2--2--------0--0--0--0--2--2---------0--0--0--0--|

guitar 2
E---------------------------------------------------|
B--0------3----0--0--------0------3-----0--0--------|
G--0------2----2--2--------0------2-----2--2--------|
D--0------0----2--2--------0------0-----2--2--------|  X2
A--2------0----0--0--------2------0-----0--0--------|
E--3-----------------------3------------------------|

SOLO


E----------------------------------------------------------------------|
B--------------9-7-----------------------------------------------------|
G--------7s9-9----9-7------7-9-9---------------------------------------|
D---------------------9-7-9---------12s14-14s16-16-16s17-17171717-16---|
A---4------------------------------------------------------------------|
E---2------------------------------------------------------------------|


E----------------------------------------------------------------------------------|
B----------------------------------------------------------------------------------|
G-----5h7---5h7---5h7---5h7---7h9---7h9---7h9---7h9---9h11---9h11---9h11---9h11----|
D--5h7---5h7---5h7---5h7---7h9---7h9---7h9---7h9---9h11---9h11---9h11---9h11-------|
A----------------------------------------------------------------------------------|
E----------------------------------------------------------------------------------|

E-----------------------------------------------------------------------|
B-------------------------------------------------------11----------12--|
G-------11h13-----11h13-----11h13-----11h13fb------11h13-------11h13----|
D--11h13-----11h13-----11h13-----11h13--------11h13-------11h13---------|repeat last part twice
A-----------------------------------------------------------------------|
E-----------------------------------------------------------------------|

pause for 4 beats:
pick slide low E and A
E--T7p3h5-x8-T8p3h5-x8-T10p3h5-x8-T8p3h5-x8-T7p3h5-x8-2-----0-T8p3-x4-T10p3-x4-T12p3-x4-T10p3-x4-|
B------------------------------------------------------------------------------------------------|
G------------------------------------------------------------------------------------------------|
D------------------------------------------------------------------------------------------------|
A------------------------------------------------------------------------------------------------|
E------------------------------------------------------------------------------------------------|

BRIDGE

E--------------------------------------------------------------|
B--------------------------------------------------------------|
G--------------------------------------------------------------|
D----2-----------2-----------2-----------2-----------2---------|
A-4--0--2--4--4--0--2--4--4--0--2--4--4--0--2--4--4--0--2--4~--|
E-2-----0--2--2-----0--2--2-----0--2--2-----0--2--2-----0--2~--|


CHORUS

E---------------------------------------------------|
B---------------------------------------------------|
G---------------------------------------------------|
D--------------2--2--2--2---------------------------|  X4
A--4--4--4--4--0--0--0--0--2--2--2--2--2--2--2--2---|
E--2--2--2--2--------------0--0--0--0--0--0--0--0---|

OUTRO

E-----
B-----
G-----
D-----
A-1/--
E-1/--
Suggest correction
Give kudos to tab author, rate the tab!
1 2 3 4 5
comments
print report bad tab
guest
You may want to rate the tab now too:
select rating
Wanna post a correction for this tab? Suggest correction