Oops, an error
Loading. Please wait.

Broken Tab

44 views 1 this week
no commentswrite comment
1 2 3 4 5
please rate
add to favorites
launch autoscroll
font size
0
reset
how to read this tab
guitar tuner
Tab Pro tools
  • play this tab
  • loop segment
  • change instrument
  • show fretboard
  • metronome
Autoscroll
slow
fast
+/-
esc
set tempo
stop
Contributor
Intro

clean

E------------------------------------------------------------------|
B------------------------------------------------------------------|
G--------------2-0-------------------2-0------------------2-0-4----|
D----0-2-0-2-4-----2-0-----0-2-0-2-4-----2-0----0-2-0-2-4-----2----|
A--0---------------------0--------------------0--------------------|
E------------------------------------------------------------------|

Verse

E--------------------------------------------------------------------------------------------|
B--------------------------------------------------------------------------------------------|
G---------------------------------------------------------------------------8-8-8-8--------8-|
D-----------------------2-------------------------------------------2-------6-6-6-6---6666-6-| 2x
A--2~--------------------2~--------------------2---------------------2------6-6-6-6---4444-6-|
E--------------------------------------------------------------------------------------------|

Chorus
GUITAR 1
E----------------------------------------------------------------------------------------|
B----------------------------------------------------------------------------------------|
G----------7-7-7-7--5-5-5-5--7-7-7-7-----------------------------------------------------|
D-5-5-5-5--7-7-7-7--5-5-5-5--7-7-7-7------------------5-5-5-5--7-7-7-7--5-5-5-5--5-5-5-5-|
A-5-5-5-5--5-5-5-5--3-3-3-3--5-5-5-5------------------5-5-5-5--5-5-5-5--3-3-3-3--5-5-5-5-|
E-3-3-3-3---------------------------------------------3-3-3-3----------------------------|

GUITAR 2
E
B------------------------------------------7--8-------------------------------------------|
G-----------------------------------77-9-77-77-77-9-7-------------------------------------|
D-----------------------------------------------------------------------------------------|
A-----------------------------------------------------------------------------------------|
E-----------------------------------------------------------------------------------------|

Verse

E--------------------------------------------------------------------------------------------|
B--------------------------------------------------------------------------------------------|
G---------------------------------------------------------------------------8-8-8-8--------8-|
D-----------------------2-------------------------------------------2-------6-6-6-6---6666-6-| 2x
A--2~--------------------2~--------------------2---------------------2------6-6-6-6---4444-6-|
E--------------------------------------------------------------------------------------------|

GUITAR 1
E----------------------------------------------------------------------------------------|
B----------------------------------------------------------------------------------------|
G----------7-7-7-7--5-5-5-5--7-7-7-7-----------------------------------------------------|
D-5-5-5-5--7-7-7-7--5-5-5-5--7-7-7-7------------------5-5-5-5--7-7-7-7--5-5-5-5--5-5-5-5-|
A-5-5-5-5--5-5-5-5--3-3-3-3--5-5-5-5------------------5-5-5-5--5-5-5-5--3-3-3-3--5-5-5-5-|
E-3-3-3-3---------------------------------------------3-3-3-3----------------------------|

GUITAR 2
E
B------------------------------------------7--8-------------------------------------------|
G-----------------------------------77-9-77-77-77-9-7-------------------------------------|
D-----------------------------------------------------------------------------------------|
A-----------------------------------------------------------------------------------------|
E-----------------------------------------------------------------------------------------|

Bridge

E----4-----------------0-------------------4------------------0-----------|
B-------------4------------------2-----------------4--------------------2-|
G-------------------------------------------------------------------------|
D-------------------------------------------------------------------------|
A-------------------------------------------------------------------------|
E-------------------------------------------------------------------------|


Solo

E-4444444444---------------00000000000000---------------4444444444444--------------00000000000--|
B------------4444444444444----------------2222222222222---------------444444444444--------------|
G-----------------------------------------------------------------------------------------------|
D-----------------------------------------------------------------------------------------------|
A-----------------------------------------------------------------------------------------------|
E-----------------------------------------------------------------------------------------------|

E-------------------------------------------------------------|
B--------------------------------------------2-1--------------|
G------------5-6-8-6-----------------6-8-3-1-----3------4--4--|
D--------------------8-6/8-6-----8-6-----------------------2--|
A----------------------------8-6------------------------------|
E--3/12/1-----------------------------------------------------|

E---------------------------------------------------------------------|
B---------------------------------------------------------------------|
G-4-4-4-4-4-4-4-4-4-4-4-4-4-4-4-4-4-4-4-4-4-4-4-4-4-4-4-4-4-4-4-4-4---|
D-2-2-2-2-2-2-2-2-1-1-1-1-1-1-1-1-2-2-2-2-2-2-2-2-1-1-1-1-1-1-1-1-1/2-|
A---------------------------------------------------------------------|
E---------------------------------------------------------------------|
END SONG
comments
We did not receive enough feedback on this tab! Please rate:
print report bad tab
1 2 3 4 5
I want to post or [tab]
guest
You may want to rate the tab now too:
select rating
Please do not post tabs as comments. Select "correction" instead!