Oops, an error
Loading. Please wait.

Bruiser Tab

47 views 1 this week
no commentswrite comment
1 2 3 4 5
3 more votes to show rating
add to favorites
launch autoscroll
font size
0
reset
how to read this tab
guitar tuner
Autoscroll
slow
fast
+/-
esc
set tempo
stop
Help us to improve Ultimate-Guitar.com Take our survey!
×
Author
INTRO
guitar 1
E----------------|
G----------0h1-1-|
B-------2p0----0-|
D----3p2-------2-|
A-1h3----------3-|
E----------------|

INTRO SOLO
Gutiar 2
E--------------------------------------------------------------------------|
B--------------------------------------------------------------------------|
G-11-12-11--------------------------------11-12-11-------------------------|
D----------12-12h14-14-14-14-16-16-16-16----------12-12h14-14-14-14-16-16--|
A--------------------------------------------------------------------------|
E--------------------------------------------------------------------------|

E-----------------------------------------------------------------------|
B-------------------------12--------------------------------------------|
G-------12-11----11h12-14---14-12-14-----14-12-11-12-14-12-11-----------|
D-16-16-------12----------------------------------------------12--12/14-|
A-----------------------------------------------------------------------|
E-----------------------------------------------------------------------|

E------------------------------------------------------------------------|
B------------------------------------------------------------------------|
G------------------------------------------------------------------14-12-|
D-14-12---12--14-12-------------------------------15-12---12-14-16-------|
A------14----------14------------------------15h17-----------------------|
E--------------------15/14--14/15-------15h17----------------------------|


E---------------------------------------|
B---------------------------------------|
G-14-12--14-12-16-12----t16p14p12-(x8)--|
D---------------------------------------|
A---------------------------------------|
E---------------------------------------|

CHORUS
Guitar 1&2
E----------------------------------------------------|
B----------------------------------------------------|
G----------------------------------------------------|
D-------9---7---------5---------5----------5-------5-|
A-------9---7---------5---------5----------5-------5-|
E-------7---5---------3---------3----------3-------3-|
 Your a bru-iser       knock me down youll pick me up

E-------------------------------------------|
B-------------------------------------------|
G-------------------------------------------|
D-9--7---------------5----------5--------5--|
A-9--7---------------5----------5--------5--|
E-7--5---------------3----------3--------3--|
 Bru-iser        The pain wont last for long
E----------------------------------------------------|
B----------------------------------------------------|
G----------------------------------------------------|
D-------9---7---------5---------5----------5-------5-|
A-------9---7---------5---------5----------5-------5-|
E-------7---5---------3---------3----------3-------3-|

 Your a bru-sier Knock me do-wn once a-gain
E-------------------------------------------|
B-------------------------------------------|
G-------------------------------------------|
D-9--7-----------------5-------5----5----5--|
A-9--7-----------------5-------5----5----5--|
E-7--5-----------------3-------3----3----3--|
 Bru-iser        Cause brusies arnt fore-ver

INTERLUDE

E-----------------------------|
B------2-----2--------2-----2-|
G-----0-----0------0------0---|
D---0-----2------0-------2----| (x2)
A--2-----3------2-------3-----|
E-3------------3--------------|
  rake


SOLO
Guitar 2
E--------------------------------------------------------------------|
B-12v-12-12v---10-12-10-12-14p12p10---10-12-14p12p10-----------------|
G----------------------------------13---------------13-11--11-13-14--|
D--------------------------------------------------------------------|
A--------------------------------------------------------------------|
E--------------------------------------------------------------------|


E--------------------------------------------|
B--------------------------------------------|
G-14-12--12--------16-14-12--16-14-12-14--10-|
D------14--12-14/16--------------------------|
A--------------------------------------------|
E--------------------------------------------|


E----------------------------------------------------|
B----------------------------------------------------|
G-------10p9p7-----9p8p6-----8p7p5-----7p6p4--4/6----|
D-10p9p7------9p8p6-----8p7p5-----7p6p4--------------|
A----------------------------------------------------|
E----------------------------------------------------|

E------9p8p6-----9p8p6-----9p8p6-----9p8p6-----9p8p6-8--6-8--|
B-9p8p6-----9p8p6-----9p8p6-----9p8p6-----9p8p6------6--4-6--|
G------------------------------------------------------------|
D------------------------------------------------------------|
A------------------------------------------------------------|
E------------------------------------------------------------|end
Guitar 1
E-----------------------------------------------------------|
B-----------------------------------------------------------|
G----------------------------------------------------8--6-8-|
D----------------------------------------------------8--6-8-|
A----------------------------------------------------6--4-6-|
E-----------------------------------------------------------|

INTRO-INTRO SOLO
VERSE (bass)
CHORUS
VERSE (bass)
CHORUS
INTERLUDE
CHORUS
SOLO
Suggest correction
Give kudos to tab author, rate the tab!
1 2 3 4 5
comments
print report bad tab
guest
You may want to rate the tab now too:
select rating
Wanna post a correction for this tab? Suggest correction