Oops, an error
Loading. Please wait.

Fighting Tab

172 views 1 this week
no commentswrite comment
1 2 3 4 5
3 more votes to show rating
add to favorites
launch autoscroll
font size
0
reset
how to read this tab
guitar tuner
Autoscroll
slow
fast
+/-
esc
set tempo
stop
Help us to improve Ultimate-Guitar.com Take our survey!
×
Author
Difficulty
intermediate
Song Fighting
Band Code of silence
Album Solid
Tunning Standard

INTRO

E----------------------------------------------------------------------------|
B----------------------------------------------------------------------------|
G-------------------4-------------------------------------4------------------|
D--------------0h2h4--------------0h2h4-2-----------0h2h4------------0h2h4-2-|
A-2--2-2-2-2-2----------2-2-2-2-2---------2-2-2-2-2---------2-2-2-2-2--------|
E-0--0-0-0-0-0----------0-0-0-0-0---------0-0-0-0-0---------0-0-0-0-0--------|
palm mute the E and A string

VERSE

E------------------------------------------------------------------------|
B------------------------------------------------------------------------|
G------------------------------------------------------------------------| repeat twice
D------------------------------------------------------------------------|
A-2-2---4-4---0-0---4-4---2-2---4-4---0-0---4-4---2-2---4-4---0-0---4-4--|
E-2-2---4-4---0-0---2-2---2-2---4-4---0-0---2-2---2-2---4-4---0-0---2-2--|

CHORUS
guitar 1
E------------------------------------|
B------------------------------------|
G------------2-----------------2-----| repeat 3 times
D---------2--0--4-----------2--0--4--|
A--2-2-2--0-----2---2--2-2--0-----2--|
E--0-0-0------------0--0-0-----------|

guitar 2
e--------------------------------------|
b-121212-12h14-12h14h16-14-12----------|
g--------------------------------------|
d--------------------------------------|
a--------------------------------------|
e--------------------------------------|


SOLO 1

E--------------------------------------------------------------------------|
B-16B-16-14----------------------------------------------------------------|
G-----------16-14b-14h16-14------------------------------------------------|
D---------------------------------------12h14-----------------------12h14--|
A----------------------------------12h14------------12h14------12h14-------|
E-----------------------------12h14------------12h14------12h14------------|


E--13fb-11------------------------------------------------------------------------|
B---------13-11-------------------------------------------------------------------|
G---------------13-12-------------------------------------------------------------|
D---------------------13-11-11h13----13s15151515151515151-13s1515151515151515-----|
A---------------------------------------------------------------------------------|
E---------------------------------------------------------------------------------|


E----------------------------------------------15-17-17-19--|
B-----------------------------------13-15-15-17-------------|
G------------------------11-13-13-15------------------------|
D-------------9-11-11-13------------------------------------|  End of solo
A-----7-9-9-11----------------------------------------------|
E--7-9------------------------------------------------------|


FILL

E----------------------------------------------------------------------------|
B----------------------------------------------------------------------------|
G-------------------4-------------------------------------4------------------|
D--------------0h2h4--------------0h2h4-2-----------0h2h4------------0h2h4-2-|
A-2--2-2-2-2-2----------2-2-2-2-2---------2-2-2-2-2---------2-2-2-2-2--------|
E-0--0-0-0-0-0----------0-0-0-0-0---------0-0-0-0-0---------0-0-0-0-0--------|
palm mute the E and A string


VERSE

E------------------------------------------------------------------------|
B------------------------------------------------------------------------|
G------------------------------------------------------------------------| repeat twice
D------------------------------------------------------------------------|
A-2-2---4-4---0-0---4-4---2-2---4-4---0-0---4-4---2-2---4-4---0-0---4-4--|
E-2-2---4-4---0-0---2-2---2-2---4-4---0-0---2-2---2-2---4-4---0-0---2-2--|


CHORUS
guitar 1
E------------------------------------|
B------------------------------------|
G------------2-----------------2-----| repeat 3 times
D---------2--0--4-----------2--0--4--|
A--2-2-2--0-----2---2--2-2--0-----2--|
E--0-0-0------------0--0-0-----------|

guitar 2
e--------------------------------------|
b-121212-12h14-12h14h16-14-12----------|
g--------------------------------------|
d--------------------------------------|
a--------------------------------------|
e--------------------------------------|

SOLO 2

E-------------------------------------------------------|
B-------------------------------------------------------|
G--------10b-8-6-6h8-8-8-8--10-8-6-6h8-8-8-8--8-6-8s10--|
D-------------------------------------------------------|
A--14---------------------------------------------------|
E--14/1-------------------------------------------------|

E---------------------------------------------------------12fb-10-111111111212121213131313-14----|
B--11h13h14-11-13-11-11h13h14-11-13-11-11h13h14-11-13-11-----------------------------------------|
G------------------------------------------------------------------------------------------------|
D------------------------------------------------------------------------------------------------|
A------------------------------------------------------------------------------------------------|
E------------------------------------------------------------------------------------------------|


E12fb-10-111111111212121213131313-14----4s5----------------------------------------|
B---------------------------------------4s5--7-5-----------------------------------|
G------------------------------------------------7-5---5-7-5-5-7-5-5-7-5-5-7-5-----|
D----------------------------------------------------7------7-----7-----7----------|
A----------------------------------------------------------------------------------|
E----------------------------------------------------------------------------------|

E-------------5-8-5-8-5h8p5-5h8p5-5h8p5-5h8p5-5h8p5-5-8-5---8--|
B-----5-7-5-8--------------8-----8-----8-----8-----8-----------|
G-7-5----------------------------------------------------------|
D--------------------------------------------------------------|
A--------------------------------------------------------------|
E--------------------------------------------------------------|

FILL

E----------------------------------------------------------------------------|
B----------------------------------------------------------------------------|
G-------------------4-------------------------------------4------------------|
D--------------0h2h4--------------0h2h4-2-----------0h2h4------------0h2h4-2-|
A-2--2-2-2-2-2----------2-2-2-2-2---------2-2-2-2-2---------2-2-2-2-2--------|
E-0--0-0-0-0-0----------0-0-0-0-0---------0-0-0-0-0---------0-0-0-0-0--------|
palm mute the E and A string


CHORUS
guitar 1
E------------------------------------|
B------------------------------------|
G------------2-----------------2-----| repeat 3 times
D---------2--0--4-----------2--0--4--|
A--2-2-2--0-----2---2--2-2--0-----2--|
E--0-0-0------------0--0-0-----------|

guitar 2
e--------------------------------------|
b-121212-12h14-12h14h16-14-12----------|
g--------------------------------------|
d--------------------------------------|
a--------------------------------------|
e--------------------------------------|

OUTRO

E----------------------------------------------------------------------------|
B----------------------------------------------------------------------------|
G-------------------4-------------------------------------4------------------|
D--------------0h2h4--------------0h2h4-2-----------0h2h4------------0h2h4-2-|
A-2--2-2-2-2-2----------2-2-2-2-2---------2-2-2-2-2---------2-2-2-2-2--------|
E-0--0-0-0-0-0----------0-0-0-0-0---------0-0-0-0-0---------0-0-0-0-0--------|
palm mute the E and A string
Suggest correction
Give kudos to tab author, rate the tab!
1 2 3 4 5
comments
print report bad tab
guest
You may want to rate the tab now too:
select rating
Wanna post a correction for this tab? Suggest correction