Oops, an error
Loading. Please wait.

Follow Me Away Tab

51 views 1 this week
no commentswrite comment
1 2 3 4 5
please rate
add to favorites
launch autoscroll
font size
0
reset
how to read this tab
guitar tuner
Tab Pro tools
  • play this tab
  • loop segment
  • change instrument
  • show fretboard
  • metronome
×
Best way to learn
"Follow Me Away"
Autoscroll
slow
fast
+/-
esc
set tempo
stop
Contributor
INTRO

E----------------------------------------------|-------------|
B----------------------------------------------|-------------|
G----------------------------------------------|-------------|
D----------------------------------------------|(x2)---------|
A----------------------------------------------|-------------|
E-0--0-0-0-0-4--4-4-4-4-2--2-2-2-2-7--7-7-7-7--|-----7-4-2-0-|

VERSE

E----------------------------------------------------------------------------------------------|
B----------------------------------------------------------------------------------------------|
G-------9-7---------9-7---------9-7---------9-7---------7h9---------7h9---------7h9---------7h9|
D-7-7h9-------7-7h9-------7-7h9-------7-7h9-------7-7h9-------7-7h9-------7-7h9-------7-7h9----|(x2)
A----------------------------------------------------------------------------------------------|
E----------------------------------------------------------------------------------------------|


CHORUS

E-----|-----------------------------------|
B-----|-----------------------------------|
G-9---|--7--------------------------------|
D-7---|--7(x16)-7------9------5-------(x2)|
A-7---|--5------7(x16)-9(x16)-5(x16)------|
E-----|---------5------7------3-----------|

VERSE

E----------------------------------------------------------------------------------------------|
B----------------------------------------------------------------------------------------------|
G-------9-7---------9-7---------9-7---------9-7---------7h9---------7h9---------7h9---------7h9|
D-7-7h9-------7-7h9-------7-7h9-------7-7h9-------7-7h9-------7-7h9-------7-7h9-------7-7h9----|(x2)
A----------------------------------------------------------------------------------------------|
E----------------------------------------------------------------------------------------------|


CHORUS

E-----|-----------------------------------|
B-----|-----------------------------------|
G-9---|--7--------------------------------|
D-7---|--7(x16)-7------9------5-------(x2)|
A-7---|--5------7(x16)-9(x16)-5(x16)------|
E-----|---------5------7------3-----------|


BRIDGE

E--------------------------------------------------------------------|
B--------------------------------------------------------------------|
G--------------------------------------------------------------------|
D-12-10-12-10-12-10-12-10-12-10--------------------------------------|
A-------------------------------12-10-12-10-12-10-12-10-12-10--------|
E--------------------------------------------------------------------|


SOLO

E-17-14--17-14--17-14--17-14--17-14--17-14--17-14--17-14-------------------|
B------17-----15-----17-----15-----17-----15-----17-----15/17-17-15---19---|
G-------------------------------------------------------------------17--17-|
D--------------------------------------------------------------------------|
A--------------------------------------------------------------------------|
E--------------------------------------------------------------------------|

E-------------------------------------------------------------------|
B-------------------------------------------------------------------|
G-15h17h19-15h17-19p15------19-17----------------17-19--------------|
D----------------------17-19------19-15-17-17-19-------17-----------|
A---------------------------------------------------------19-15-17--|
E-------------------------------------------------------------------|

E-----------------------------------------------------------------14--|
B-------------------------------------15---------------15---15-17-----|
G----------14-16-----------14-18---18---14--14-14h15-17---------------|
D-------14--------------14--------------------------------------------|
A-14-16-----------14-16-----------------------------------------------|
E---------------------------------------------------------------------|

E-14-12---14-12---14-12---14-12---12-10---12-10---12-10---12-10---|
B------14------14------14------14------12------12------12------12-|
G-----------------------------------------------------------------|
D-----------------------------------------------------------------|
A-----------------------------------------------------------------|
E-----------------------------------------------------------------|

E---------------------------------------------------------------------------|
B-14-12---14-12---14-12---14-12---12-10---12-10---12-10---12-10-------------|
G------14------14------14------14------12------12------12------12--12----14-|
D---------------------------------------------------------------------------|
A---------------------------------------------------------------------------|
E---------------------------------------------------------------------------|

E-------------------------------------------------------------------------|
B-------------------------------------------------------------------------|
G-14-12------------------------------------------9-7-9-------7-9b9b9b-7---|
D------14-16-14-12-14-10-12--------------10-8-10----------7-9-----------9-|
A---------------------------12--12-10-12----------------------------------|
E-------------------------------------------------------------------------|

E------------------------------------------------------------------------------------------|
B-12h14p12---12h14p12---12h14p12---12h14p12---14h16p14---14h16p14---14h16p14---14h16p14----|
G---------14---------14---------14---------14---------16---------16---------16---------16--|
D------------------------------------------------------------------------------------------|
A------------------------------------------------------------------------------------------|
E------------------------------------------------------------------------------------------|
song fades out
comments
We did not receive enough feedback on this tab! Please rate:
print report bad tab
1 2 3 4 5
I want to post or [tab]
guest
You may want to rate the tab now too:
select rating
Please do not post tabs as comments. Select "correction" instead!