Oops, an error
Loading. Please wait.

Itll Come To You Tab

81 views 1 this week
no commentswrite comment
1 2 3 4 5
2 more votes to show rating
add to favorites
launch autoscroll
font size
0
reset
how to read this tab
guitar tuner
Autoscroll
slow
fast
+/-
esc
set tempo
stop
Help us to improve Ultimate-Guitar.com Take our survey!
×
Author
Song-itll come to you
Code of silence


INTRO/MAIN RIFF

E-------------------------------------|
B-------------------------------------|
G-------------------------------------|
D-4--4-2p0-4--4-2p0-4--4-2p0-4--4-2p0-|
A-2--2-0---2--2-0---2--2-0---2--2-0---|
E-------------------------------------|

VERSE

E---------------------------------------------------------|
B---------------------------------------------------------|
G---------------------------------------------------------|
D-4--4-4--4-4--4-4--4-4--4-4--4-4--4-4--4--4-2p0-4--4-2p0-| (x4)
A-2--2-2--2-2--2-2--2-2--2-2--2-2--2-2--2--2-0---2--2-0---|
E---------------------------------------------------------|

PRE-CHORUS

E------------------------------------|
B------------------------------------|
G------------------------------------|
D------------------------------------|
A-4--4-4--4-4444444444444444444------|
E-2--2-2--2-2222222222222222222-15/--|

CHORUS

E----------------------------------      -----------------|
B----------------------------------      -----------------|
G----------------------------------      -----------------|
D-4-4-444-7-7-777------------------(x4)  -----------------|
A-2-2-222-5-5-555-7-7-777-9-9-999--      -9-9-9-9-9-9-9-9-|
E-----------------5-5-555-7-7-777--      -9-9-9-9-9-9-9-9-|

INTRO/MAIN RIFF

E-------------------------------------|
B-------------------------------------|
G-------------------------------------|
D-4--4-2p0-4--4-2p0-4--4-2p0-4--4-2p0-|
A-2--2-0---2--2-0---2--2-0---2--2-0---|
E-------------------------------------|

VERSE

E---------------------------------------------------------|
B---------------------------------------------------------|
G---------------------------------------------------------|
D-4--4-4--4-4--4-4--4-4--4-4--4-4--4-4--4--4-2p0-4--4-2p0-| (x4)
A-2--2-2--2-2--2-2--2-2--2-2--2-2--2-2--2--2-0---2--2-0---|
E---------------------------------------------------------|

PRE-SOLO

E------------------------------------|
B------------------------------------|
G------------------------------------|
D------------------------------------|
A-4--4-4--4-4444444444444444444------|
E-2--2-2--2-2222222222222222222-15/--|

SOLO

E------------------------------------------------------------------------------------|
B-13b-10-13-10h13h15-10-13-10h13h15-10h13-10h13h15-10-13-10h13h15-10-13-10h13h15-----|
G------------------------------------------------------------------------------------|
D------------------------------------------------------------------------------------|
A------------------------------------------------------------------------------------|
E------------------------------------------------------------------------------------|

E--------------------------------------------------|
B-10h12-10h12-10h12----------------------8h10-8h10-|
G------------------10h12-10h12-8h10-8h10-----------|
D--------------------------------------------------|
A--------------------------------------------------|
E--------------------------------------------------|

E-8-6-------------------------------------------------------------------------|
B----9-7-8-6-----6h8h9p6---------------12-10-7--------12-10-7---------12-10-7-|
G------------8-6---------9p7p6h9-11-12---------9-11-12--------9-11-12---------|
D-----------------------------------------------------------------------------|
A-----------------------------------------------------------------------------|
E-----------------------------------------------------------------------------|

E--------------------------------------------------------------------------------------|
B-------------12fb-12fb-12fb-10--------------------------------------------------------|
G-10-12-13-15-------------------12--10-12-13-14-10-12-13-14-10-12-13-14-10-12-13-14----|
D--------------------------------------------------------------------------------------|
A--------------------------------------------------------------------------------------|
E--------------------------------------------------------------------------------------|

E-------------------|
B-------------------|
G-14/16-16/18-18/19-|
D-------------------|
A-------------------|
E-------------------|

BRIDGE
  PM
E-------------------------------------------------------------------|
B-------------------------------------------------------------------|
G-------------------------------------------------------------------|
D-----2-0----------2-0----------2-0----------2-0----------2-0-------|
A-2-2-----2-2--2-2-----2-2--2-2-----2-2--2-2-----2-2--2-2-----2-2---|
E-------------------------------------------------------------------|

INTRO/MAIN RIFF

E-------------------------------------|
B-------------------------------------|
G-------------------------------------|
D-4--4-2p0-4--4-2p0-4--4-2p0-4--4-2p0-|
A-2--2-0---2--2-0---2--2-0---2--2-0---|
E-------------------------------------|

PRE-CHORUS

E------------------------------------|
B------------------------------------|
G------------------------------------|
D------------------------------------|
A-4--4-4--4-4444444444444444444------|
E-2--2-2--2-2222222222222222222-15/--|

CHORUS

E----------------------------------      -----------------|
B----------------------------------      -----------------|
G----------------------------------      -----------------|
D-4-4-444-7-7-777------------------(x8)  -----------------|
A-2-2-222-5-5-555-7-7-777-9-9-999--      -9-9-9-9-9-9-9-9-|
E-----------------5-5-555-7-7-777--      -9-9-9-9-9-9-9-9-|

OUTRO

E-------------------------------------|
B-------------------------------------|
G-------------------------------------|
D-4--4-2p0-4--4-2p0-4--4-2p0-4--4-2p0-|
A-2--2-0---2--2-0---2--2-0---2--2-0---|
E-------------------------------------|
Suggest correction
Give kudos to tab author, rate the tab!
1 2 3 4 5
comments
print report bad tab
guest
You may want to rate the tab now too:
select rating
Wanna post a correction for this tab? Suggest correction