Oops, an error
Loading. Please wait.

The Last Straw Tab

25 views 1 this week
no commentswrite comment
1 2 3 4 5
please rate
add to favorites
launch autoscroll
font size
0
reset
how to read this tab
guitar tuner
Autoscroll
slow
fast
+/-
esc
set tempo
stop
Help us to improve Ultimate-Guitar.com Take our survey!
×
Author
tboat 320
INTRO

E-----------------------------------------------|
B-----------------------------------------------|
G-----------------------------------------------|
D-9--9-9-7-9--5--5-5-7--7-7----9--9-9-7-9--11---|
A-----------------------------------------------|
E-----------------------------------------------|

E-------------------------------------------------|
B-------------------------------------------------|
G-------------------------------------------------|
D-9--9-9-7-9------------------9--9-9-7-9-11-11/12-|
A------------9--9-9/10-10-10----------------------|
E-------------------------------------------------|

then
E------------------------------------------------------------------|
B------------------------------------------------------------------|
G------------------------------------7-7-7-------------------------|
D-9-9--777-7-7-5-5-5-7--1010-777-7-7-7-7-7-7--5-5-7---7-7-7-7-7-7--|
A-9-9--777-7-7-5-5-5-7--1010-777-7-7-5-5-5-5--5-5-7---7-7-7-7-7-7--|
E-7-7--555-5-5-3-3-3-5--8-8--555-5-5-------3--3-3-5---5-5-5-5-5-5--|

VERSE

E-------------------|
B-------------------|
G-------------------|
D---7---5---9---5---|  (x8)
A--7---5---9---5----|
E-5---3---7---3-----|

CHORUS

Guitar 1
E-----------------------------------|
B-----------------------------------|
G-----------------------------------|
D-----------------------------------|  (x3)
A--1-2-1--------1-2-1--------1-2-1--|
E-2-2-----2-22-2-2-----2-22-2-2-----|
Guitar 2
E-----------------------------------|
B-----------------------------------|
G-----------------------------------|
A-7---5---9---7---7---5---9---7-----|  (x3)
D-7---5---9---7---7---5---9---7-----|
E-5---3---7---5---5---3---7---5-----|

FILL

E-----------------------------------------------|
B-----------------------------------------------|
G-----------------------------------------------|
D-9--9-9-7-9--5--5-5-7--7-7----9--9-9-7-9--11---|
A-----------------------------------------------|
E-----------------------------------------------|

E-------------------------------------------------|
B-------------------------------------------------|
G-------------------------------------------------|
D-9--9-9-7-9------------------9--9-9-7-9-11-11/12-|
A------------9--9-9/10-10-10----------------------|
E-------------------------------------------------|

VERSE

E-------------------|
B-------------------|
G-------------------|
D---7---5---9---5---|  (x8)
A--7---5---9---5----|
E-5---3---7---3-----|

CHORUS

Guitar 1
E-----------------------------------|
B-----------------------------------|
G-----------------------------------|
D-----------------------------------|  (x3)
A--1-2-1--------1-2-1--------1-2-1--|
E-2-2-----2-22-2-2-----2-22-2-2-----|
Guitar 2
E-----------------------------------|
B-----------------------------------|
G-----------------------------------|
A-7---5---9---7---7---5---9---7-----|  (x3)
D-7---5---9---7---7---5---9---7-----|
E-5---3---7---5---5---3---7---5-----|

BRIDGE

E--------------------7-5-----5/8\6--10-8-6-10-8-6-10-8-6--------|
B--------12-10---7-5-------------------------------------9-11---|
G---------------------------------------------------------------|
D---------------------------------------------------------------|
A---------------------------------------------------------------|
E---------------------------------------------------------------|
   TAP 11
E-11p9p7-11p9p7-11p9p7-11p9p7-11p9p7-11p9p7-11p9p7-11p9p7-11p9p7-11p9p7------|
B----------------------------------------------------------------------------|
G----------------------------------------------------------------------------|
D----------------------------------------------------------------------------|
A----------------------------------------------------------------------------|
E----------------------------------------------------------------------------|


CHORUS

Guitar 1
E-----------------------------------|
B-----------------------------------|
G-----------------------------------|
D-----------------------------------|  (x3)
A--1-2-1--------1-2-1--------1-2-1--|
E-2-2-----2-22-2-2-----2-22-2-2-----|

Guitar 2
E------------------------------------|
B------------------------------------|
G------------------------------------|
D-333533373--3335333733-----33353337-| (x3)
A-333533373--3335333733-----33353337-|
E-333533373--3335333733-----33353337-|

OUTRO

E------------------------------------------------------------------|
B------------------------------------------------------------------|
G------------------------------------7-7-7-------------------------|
D-9-9--777-7-7-5-5-5-7--1010-777-7-7-7-7-7-7--5-5-7---7-7-7-7-7-7--|
A-9-9--777-7-7-5-5-5-7--1010-777-7-7-5-5-5-5--5-5-7---7-7-7-7-7-7--|
E-7-7--555-5-5-3-3-3-5--8-8--555-5-5-------3--3-3-5---5-5-5-5-5-5--|
Suggest correction new What's this?
You can suggest a correction to this tab. Community and Mods will review your correction and vote to approve or reject it.
comments
We did not receive enough feedback on this tab! Please rate:
print report bad tab
1 2 3 4 5
guest
You may want to rate the tab now too:
select rating
Please do not post tabs as comments. Select "correction" instead!