Oops, an error
Loading. Please wait.

Walk Away Tab

41 views 1 this week
no commentswrite comment
1 2 3 4 5
please rate
add to favorites
launch autoscroll
font size
0
reset
how to read this tab
guitar tuner
Autoscroll
slow
fast
+/-
esc
set tempo
stop
Help us to improve Ultimate-Guitar.com Take our survey!
×
Author
Title: Walk away
Band: Code of silence
Album: Solid
tuning: Standard

Im a guitarist in the band code of silence and we were just signed and our album is 
to be released in november and i got really bored one day and just decided to tab one of our 
so obviously it 100%
INTRO

E-----------------------------------------------------------------------|
B-----------------------------------------------------------------------|
G-----------------------------------------------------------------------|
D-----------------------------------------------------------------------|
A-0-0-3-0-0-3-0-0-3-0-0-0-5-0-3---0-0-3-0-0-3-0-0-3-0-0-0-2-------------|
E-----------------------------------------------------------------------|

E-----------------------------------------------------------------------|
B-----------------------------------------------------------------------|
G-----------------------------------------------------------------------|
D-----------------------------------------------------------------------|
A-0-0-3-0-0-5-0-0-3-0-0-5-0-0-3-0-0-5-0-0-3-0-0-5-0-0-3---0-------------|
E-----------------------------------------------------------------------|

VERSE

E--------------------------------------------------------------------------|
B--------------------------------------------------------------------------|
G--------------------------------------------------------------------------|  X2
D--------------------------------------------------------------------------|
A--2-2x---2-2-2x---2-2-2x---2-2-2-2x---2-2x---2-2-2x---2-2-2x---2-2-2------|2x
E--0-0x---0-0-0x---0-0-0x---0-3-0-0x---0-0x---0-0-0x---0-0-0x---0-3-0------|0x

PRE-CHORUS

E------------------------------------------------------------------------|
B------------------------------------------------------------------------|
G------------------------------------------------------------------------|
D------------------------------------------------------------------------|
A--2-2---2-2-2---2-2-2---2-2-2-2-2-2-2-2---------------------------------|
E--0-0---0-0-0---0-0-0---0-0-0-0-0-0-0-0---------------------------------|

CHORUS

E------------------------------------------------------------------------|
B------------------------------------------------------------------------|
G------------------------------------------------------------------------|
D--4-4-4-7-7-7-4-4-4-4-4-4--4-4-4-7-7-7-4-4-4-4-4-4---x2-4-----5----2h4--|
A--4-4-4-7-7-7-4-4-4-4-4-4--4-4-4-7-7-7-4-4-4-4-4-4------4-----5----2h4--|
E--4-4-4-5-5-5-2-2-2-2-2-2--4-4-4-5-5-5-2-2-2-2-2-2------4-----5----2h4--|

VERSE

E--------------------------------------------------------------------------|
B--------------------------------------------------------------------------|
G--------------------------------------------------------------------------|  X2
D--------------------------------------------------------------------------|
A--2-2x---2-2-2x---2-2-2x---2-2-2-2x---2-2x---2-2-2x---2-2-2x---2-2-2------|2x
E--0-0x---0-0-0x---0-0-0x---0-3-0-0x---0-0x---0-0-0x---0-0-0x---0-3-0------|0x

PRE-CHORUS

E------------------------------------------------------------------------|
B------------------------------------------------------------------------|
G------------------------------------------------------------------------|
D------------------------------------------------------------------------|
A--2-2---2-2-2---2-2-2---2-2-2-2-2-2-2-2---------------------------------|
E--0-0---0-0-0---0-0-0---0-0-0-0-0-0-0-0---------------------------------|

CHORUS

E------------------------------------------------------------------------|
B------------------------------------------------------------------------|
G------------------------------------------------------------------------|
D--4-4-4-7-7-7-4-4-4-4-4-4--4-4-4-7-7-7-4-4-4-4-4-4---x2-4-----5----2h4--|
A--4-4-4-7-7-7-4-4-4-4-4-4--4-4-4-7-7-7-4-4-4-4-4-4------4-----5----2h4--|
E--4-4-4-5-5-5-2-2-2-2-2-2--4-4-4-5-5-5-2-2-2-2-2-2------4-----5----2h4--|

VERSE

E--------------------------------------------------------------------------|
B--------------------------------------------------------------------------|
G--------------------------------------------------------------------------|  X2
D--------------------------------------------------------------------------|
A--2-2x---2-2-2x---2-2-2x---2-2-2-2x---2-2x---2-2-2x---2-2-2x---2-2-2------|2x
E--0-0x---0-0-0x---0-0-0x---0-3-0-0x---0-0x---0-0-0x---0-0-0x---0-3-0------|0x

PRE-SOLO

E------------------------------------------------------------------------|
B------------------------------------------------------------------------|
G------------------------------------------------------------------------|
D------------------------------------------------------------------------|
A--2-2---2-2-2---2-2-2---2-2-2-2-2-2-2-2---------------------------------|
E--0-0---0-0-0---0-0-0---0-0-0-0-0-0-0-0---------------------------------|

SOLO

LEAD GUITAR

Lots of wah
E--------------------------------------------------------------------------|
B--------------------------------------------------------------------------|
G----------------------------------12-14-14s16s14-14-12-----------16-14-12-|
D-3s12-12-12h14b-12-----------12-14--------------------14-12-14-16---------|
A------------------14-12-12h14---------------------------------------------|
E--------------------------------------------------------------------------|

E-------------------------------------------------------------------------|
B-------------------------------------------------------------------------|
G-T16p12h14-T16p12h14-T16p12h14-T16p12h14-T16p12h14-16fb------------------|
D-------------------------------------------------------------------------|
A-------------------------------------------------------------------------|
E-------------------------------------------------------------------------|

E-------------------------------------------------------------------------|
B-------------------------------------------------------------------------|
G-------------------------------------------------------------------------|
D-------------------------------------------------------------------------|
A-15-13-12-12-10-9-9-7-6-6-4-2h4------------------------------------------|
E-------------------------------------------------------------------------|

RYTHEM

E-------------------------------------------------------------------------|
B-------------------------------------------------------------------------|
G-------------------------------------------------------------------------|
D--7---5---9---7-----7---5---9---7-----7---5---9---7-----7---5---9---7----|
A--7---5---9---7-----7---5---9---7-----7---5---9---7-----7---5---9---7----|
E--5---3---7---5-----5---3---7---5-----5---3---7---5-----5---3---7---5----|


INTERLUDE

E-------------------------------------------------------------------------|
B-------------------------------------------------------------------------|
G-------------------------------------------------------------------------|
D----7---5---9---7----7---5---9---7----7---5---9---7--7-7-7-7-7-7-7-------|
A---7---5---9---7----7---5---9---7----7---5---9---7---7-7-7-7-7-7-7-------|
E--5---3---7---5----5---3---7---5----5---3---7---5----5-5-5-5-5-5-5-------|


CHORUS

E------------------------------------------------------------------------|
B------------------------------------------------------------------------|
G------------------------------------------------------------------------|
D--4-4-4-7-7-7-4-4-4-4-4-4--4-4-4-7-7-7-4-4-4-4-4-4---x2-4-----5----2h4--|
A--4-4-4-7-7-7-4-4-4-4-4-4--4-4-4-7-7-7-4-4-4-4-4-4------4-----5----2h4--|
E--4-4-4-5-5-5-2-2-2-2-2-2--4-4-4-5-5-5-2-2-2-2-2-2------4-----5----2h4--|

OUTRO

E-----------------------------------------------------------------------|
B-----------------------------------------------------------------------|
G-----------------------------------------------------------------------|
D-----------------------------------------------------------------------|
A-0-0-3-0-0-3-0-0-3-0-0-0-5-0-3---0-0-3-0-0-3-0-0-3-0-0-0-2-------------|
E-----------------------------------------------------------------------|

E-----------------------------------------------------------------------|
B-----------------------------------------------------------------------|
G-----------------------------------------------------------------------|
D-----------------------------------------------------------------------|
A-0-0-3-0-0-5-0-0-3-0-0-5-0-0-3-0-0-5-0-0-3-0-0-5-0-0-3---0-------------|
E-----------------------------------------------------------------------|
Suggest correction
What's this?
You can suggest a correction to this tab. Community and Mods will review your correction and vote to approve or reject it.
comments
We did not receive enough feedback on this tab! Please rate:
print report bad tab
1 2 3 4 5
guest
You may want to rate the tab now too:
select rating
Please do not post tabs as comments. Select "correction" instead!