Oops, an error
Loading. Please wait.

Dreams In Inertia bass

913 views 12 this week
1 commentread comment
1 2 3 4 5
1 last vote to show rating
add to favorites
×
Save as Personal and add changes to this tab that will be seen only by you. Learn more ›
×
You can save this tab as Personal to edit and correct it or add notes. All changes will be seen only by you. Learn more »
launch autoscroll
font size
0
reset
guitar tuner
edit
Autoscroll
slow
fast
+/-
esc
set tempo
stop
-------------------------------------------------------------------------------
                             DREAMS IN INERTIA - Code Orange (Kids)
-------------------------------------------------------------------------------
Tabbed by: cesare_moon
E-mail: 

Artist: Code Orange
Album: I Am King
Year: 2014

Tuning: B, F#, B. E (Drop B)

Verse - 00.23 - 01.08

E |---------------------------------------------------------------------------|
B |---------------------------------------------------------------------------|
F#|---------------------------5-8-5---------------------------5-8-5-----------|
B |-6-6-6-6-6-6-6-6-6-6-6-6-6-------6-6-6-6-6-6-6-6-6-6-6-6-6-----------------| x2

E |-----------------------|
B |-----------------------|
F#|-----------------------|
B |-2---2---2---2---------|

E |---------------------------------------------------------------------------|
B |---------------------------------------------------------------------------|
F#|---------------------------5-8-5---------------------------5-8-5-----------|
B |-6-6-6-6-6-6-6-6-6-6-6-6-6-------6-6-6-6-6-6-6-6-6-6-6-6-6-----------------| x2

E |-----------------------|
B |-----------------------|
F#|-----------------------|
B |-2---2---2---2---------|

Chorus - 01.08 - 01.28 

E |---------------------------------------------------------------------------|
B |---------------------------------------------------------------------------|
F#|---------------------------------------------------------------------------|
B |-0-0-0-0-0-1-1-3-3-4-4-4-4-4-4-4/8-8-8-8-8-1-1-1-0-0-0-0-0-0-0-0-----------|

E |---------------------------------------------------------------------------|
B |---------------------------------------------------------------------------|
F#|---------------------------------------------------------------------------|
B |-0-0-0-0-0-1-1-3-3-4-4-4-4-4-4-4/8-8-8-8-8-1-----8-----0-------------------|

Verse - 01.35 - 02.17

E |---------------------------------------------------------------------------|
B |---------------------------------------------------------------------------|
F#|---------------------------------------------------------------------------|
B |-0-0-0-0-0-0-0-0-0-0-0-0-0-3-2-0-0-0-0-0-0-0-0-0-0-0-0-0-0-3-2-------------|

E |---------------------------------------------------------------------------|
B |---------------------------------------------------------------------------|
F#|---------------------------------------------------------------------------|
B |-0-0-0-0-0-0-0-0-0-0-0-0-0-3-2-------------------1---1---1---1-------------|

E |---------------------------------------------------------------------------|
B |---------------------------------------------------------------------------|
F#|---------------------------------------------------------------------------|
B |-0-0-0-0-0-0-0-0-0-0-0-0-0-3-2-0-0-0-0-0-0-0-0-0-0-0-0-0-0-3-2-------------| x2

E |-----------------------|
B |-----------------------|
F#|-----------------------|
B |-1---1---1---1---------|

Chorus - 02.17 - 02.59

E |---------------------------------------------------------------------------|
B |---------------------------------------------------------------------------|
F#|---------------------------------------------------------------------------|
B |-0-0-0-0-0-1-1-3-3-4-4-4-4-4-4-4/8-8-8-8-8-1-1-1-0-0-0-0-0-0-0-0-----------| x3

E |---------------------------------------------------------------------------|
B |---------------------------------------------------------------------------|
F#|---------------------------------------------------------------------------|
B |-0-0-0-0-0-1-1-3-3-4-4-4-4-4-4-4/8-8-8-8-8-1-----8-----0-------------------|

Breakdown - 03.13 - 04.02

E |-----------------------|
B |-----------------------|
F#|-----------------------|
B |-1---1---1---1---------|

E |---------------------------------------------------------------------------|
B |---------------------------------------------------------------------------|
F#|---------------------------------------------------------------------------|
B |-1-0-------------------------3-2-1--------------------1-0-4-3-2--3-2-1-2---|

E |---------------------------------------------------------------------------|
B |---------------------------------------------------------------------------|
F#|---------------------------------------------------------------------------|
B |-1-0-------------------------3-2-1--------------------1-0-8-7-3-2-1--------|

E |---------------------------------------------------------------------------|
B |---------------------------------------------------------------------------|
F#|---------------------------------------------------------------------------|
B |-1-0-------------------------3-2-1--------------------1-0-4-3-2--3-2-1-2---|

E |---------------------------------------------------------------------------|
B |---------------------------------------------------------------------------|
F#|---------------------------------------------------------------------------|
B |-1-0-------------------------3-2-1--------------------1-0-8-7-3-2-1--------|

Outro - 04.02 - End.

E |---------------------------------------------------------------------------|
B |---------------------------------------------------------------------------|
F#|---------------------------------------------------------------------------|
B |-1-0-------------------------3-2-1--------------------1-0-4-3-2--3-2-1-2---|

E |---------------------------------------------------------------------------|
B |---------------------------------------------------------------------------|
F#|---------------------------------------------------------------------------|
B |-1-0-------------------------3-2-1--------------------1-0-8-7-3-2-1--------|

E |---------------------------------------------------------------------------|
B |---------------------------------------------------------------------------|
F#|---------------------------------------------------------------------------|
B |-1-0-------------------------3-2-1--------------------1-0-4-3-2--3-2-1-2---|

E |---------------------------------------------------------------------------|
B |---------------------------------------------------------------------------|
F#|---------------------------------------------------------------------------|
B |-1-0-------------------------3-2-1--------------------1-0-8-7-3-2-1--------|

Thank you! :)

| /  slide up
| \  slide down
| h  hammer-on
| p  pull-off
| ~  vibrato
| +  harmonic
| x  Mute note
===============================================================================

            
            
Suggest correction
Creating personal tab
Creating personal tab
You can edit any tab online and save it as your Personal.

You can edit, replace or remove any tab part or add personal notes – all changes will be seen only by you.

Personal tabs can be accessed anytime from any device, even offline.
Learn more »
Give kudos to tab author, rate the tab!
1 2 3 4 5
comments
print report bad tab
1 comment total.
0 reply
spectrrrspectrr 10 Apr 01, 2017 02:10 PM

merci beaucoup

guest
You may want to rate the tab now too:
select rating
Wanna post a correction for this tab? Suggest correction