Oops, an error
Loading. Please wait.

Me Or You Chords

880 views 15 this week
no commentswrite comment
1 2 3 4 5
x 4
add to favorites
launch autoscroll
font size
0
reset
transpose
0
reset
display chords
guitar tuner
Autoscroll
slow
fast
+/-
esc
set tempo
stop
Author
About this tab version
Explain why your version is different. Was this info helpful? Yes No
Strumming
There is no strumming pattern for this song yet. and get +5 IQ
SONG:    ME OR YOU
ARTIIST: CODY JINKS
TAB BY:  DON CZARSKI
EMAIL:   GUITARZAN7@HOTMAIL.COM


               ME OR YOU
               CODY JINKS


INTRO:
   B     E Ebm C#m B   F# F# F# B

E --------------------------
B -0-2-4-5-4-2-0------------
G----------------3-----3/4--
D -----------------4-6------
A --------------------------
E --------------------------


VERSE:
            B
If you're thinking of leaving tonight. 
C#m       E
Go on and go
           F#
If you're sure 
                        B   
It's the right thing to do

   F#    B   F#    B
E --------------------
B --------------------
G --------------------
D --------------------
A -----1-2-------1-2--
E -2-4-------2-4------


VERSE:
     B
You know I was never the kind 
    C#m              E
For dragging things out 
    F#
And I thought
              B  
Neither were you 

   F#    B   F#    B
E --------------------
B --------------------
G --------------------
D --------------------
A -----1-2-------1-2--
E -2-4-------2-4------


VERSE:
    B
It hurts me to see you unhappy. 
    C#m         E
It hurts me to know 
     F#
That it's me 
                      B   
That's made you that way 

   F#    B   F#    B
E --------------------
B --------------------
G --------------------
D --------------------
A -----1-2-------1-2--
E -2-4-------2-4------


VERSE:
    B
So maybe it's me that should go 
       C#m          E
So you don't go on hating 
F#
Us both 
                   B   
For just one more day  

  F#     B
E ----------
B ----------
G ----------
D ----------
A -----1-2--
E -2-4------


CHORUS:
    F#       B   E              B        B B E B
And I don't like   walking the tightrope 
    B                B B E B
It ain't always easy 
                      F#
But I've always been true 

         E             B      B C#m Ebm E
And you don't have to tell me 
 E               B        B C#m Ebm E
You've done any different 

 F#        B
God only knows 
                   F#
It's how this one goes 
             B    
Is it me or you 

   B     E Ebm C#m B   F# F# F# B

E --------------------------
B -0-2-4-5-4-2-0------------
G----------------3-----3/4--
D -----------------4-6------
A --------------------------
E --------------------------


VERSE:
      B
If I may just leave you one question 
C#m           E
What took so long 
        F#
What's kept you 
                 B    
Around all this time? 

   F#    B   F#    B
E --------------------
B --------------------
G --------------------
D --------------------
A -----1-2-------1-2--
E -2-4-------2-4------


VERSE:
    B
If I'd known that somethin' was wrong 
C#m          E
I could've changed things 
          F#
But it's too late 
                          B    
And that seems that I'm blind 

   F#    B   F#    E
E --------------------
B --------------------
G --------------------
D --------------------
A -----1-2-------1-2--
E -2-4-------2-4------


BREAK:
     E
And I've been so wrong for so long 
                 B
With no way of knowing 
     F#  
What for 

     E
At least I"d have tried if I'd known 
          B
It don't matter 
    F#
Anymore


CHORUS:
             B   E              B        B B E B
And I don't like   walking the tightrope 
    B                 B B E B
It ain't always easy 
                      F#
But I've always been true 

     E             B       B C#m Ebm E
You don't have to tell me 
                    B         B C#m Ebm E
If you've done any different 

F#         B
God only knows 
                   F#
It's how this one goes 
             B   
Is it me or you 

  B     E Ebm C#m B
E -----------------
B -0-2-4-5-4-2-0---
G------------------
D -----------------
A -----------------
E -----------------


OUTRO:
F#         B
God only knows 
                   F#
It's how this one goes 
             B  
Is it me or you

   B     E Ebm C#m B   B     E Ebm C#m B
E ------------------------------------
B -0-2-4-5-4-2-0-------0-2-4-5-4-2-0--
G ------------------------------------
D ------------------------------------
A ------------------------------------
E ------------------------------------


Suggest correction
comments
print report bad tab
guest
You may want to rate the tab now too:
select rating
Wanna post a correction for this tab? Suggest correction