Oops, an error
Loading. Please wait.

Love Song Tab

284 views 3 this week
no commentswrite comment
1 2 3 4 5
please rate
add to favorites
launch autoscroll
font size
0
reset
how to read this tab
guitar tuner
Tab Pro tools
  • play this tab
  • loop segment
  • change instrument
  • show fretboard
  • metronome
×
Best way to learn
"Love Song"
Autoscroll
slow
fast
+/-
esc
set tempo
stop
Contributor
Difficulty
novice
-----------------------------------------------------------------------------
                                 Love Song
-----------------------------------------------------------------------------
                        By: The Coffin Draggers

tuning:standard
tabbed by:ascarymovie@gamil.com
b=bend
im not quiet sure about the strumming but once you hear the song you'll be able to play 
hopefully its not to confusing the way i tabbed it out:)
Intro-
e-------------------------------------------------------------|--------------|
b-------------------------------------------------------------|--------------|
g------4---4-4-5--5-5--5--5-5--7--7--7-7--7--7-7--7--7-7--7-7-|--------------|
d-2--2-4-2-4-4-5--5-5--5--5-5--7--7--7-7--7--7-7--7--7-7--7-7-|--------7-----|
a-2--2-2-2-2-2-3--3-3--3--3-3--5--5--5-5--5--5-5--5--5-5--5-5-|-7-9-10--10-9-|
e-0--0---0----------------------------------------------------|--------------|

e----------------------------------------------------------------------------|
b----------------------------------------------------------------------------|
g-7------------------------------------7-------------------------------------|
d--10-9--10-9--10-9b~----------7---------10-9--10-9--10-9b~------------------|
a-----------------------7-9-10---10-9--------------------------7-9-10-9b~----|
e----------------------------------------------------------------------------|
                        chorus-
e----------------------|-----------------------------------------------------|
b----------------------|-----------------------------------------------------|
g----------------------|-----------------5--5-5--5--5-5--7--7-7--7--7-7--7b--|
d----------------------|-2--2-2--2--2-2--5--5-5--5--5-5--7--7-7--5--7-7--7b--|
a-7-9-10-9b~---10-9b~--|-2--2-2--2--2-2--3--3-3--3--3-3--5--5-5--5--5-5------|
e----------------------|-0--0-0--0--0-0--------------------------------------|

e----------------------------------------------------|-------5---------------|
b----------------------------------------------------|-5-7-8--8-7--8-7-5-7-8-|
g-----------------5--5-5--5--5-5--7--7-7--7--7-7--7b-|-----------------------|
d-2--2-2--2--2-2--5--5-5--5--5-5--7--7-7--7--7-7--7b-|-----------------------|
a-2--2-2--2--2-2--3--3-3--3--3-3--5--5-5--5--5-5-----|-----------------------|
e-0--0-0--0--0-0-------------------------------------|-----------------------|
                verse- played a total of 2 times
e-----3h5-7~---|-------------------------------------------------------------|
b-7-5----------|-------------------------------------------------------------|
g--------------|-----------------5-5-5-5-5-5-5-5-7-7-7-7-7-7-7-7-7-7-7-7-7-7-|
d--------------|-2-2-2-2-2-2-2-2-5-5-5-5-5-5-5-5-7-7-7-7-7-7-7-7-7-7-7-7-7-7-|
a--------------|-2-2-2-2-2-2-2-2-3-3-3-3-3-3-3-3-5-5-5-5-5-5-5-5-5-5-5-5-5-5-|
e--------------|-0-0-0-0-0-0-0-0---------------------------------------------|
       chorus-
e-----|----------------------------------------------------------------------|
b-----|----------------------------------------------------------------------|
g-7-7-|------------------5--5-5--5--5-5--7--7-7--7--7-7-7b-------------------|
d-7-7-|--2--2-2--2--2-2--5--5-5--5--5-5--7--7-7--7--7-7-7b--2--2-2--2--2-2---|
a-5-5-|--2--2-2--2--2-2--3--3-3--3--3-3--5--5-5--5--5-5-----2--2-2--2--2-2---|
e-----|--0--0-0--0--0-0-------------------------------------0--0-0--0--0-0---|

e-------------------------------------|--------------------------------------|
b-------------------------------------|--------------------------------------|
g--5--5-5--5--5-5--7--7-7--7--7-7--7b-|--------------------------------------|
d--5--5-5--5--5-5--7--7-7--7--7-7--7b-|--------7-----------------------------|
a--3--3-3--3--3-3--5--5-5--5--5-5-----|-7-9-10---10-9--10-9-7-9-10-9-7-------|
e-------------------------------------|--------------------------------------|
 (no guitar,below)      chorus-
e----------------------|-----------------------------------------------------|
b----------------------|-----------------------------------------------------|
g----------------------|------------------5--5-5--5--5-5--7--7-7--7--7-7--7b-|
d----------------------|--2--2-2--2--2-2--5--5-5--5--5-5--7--7-7--7--7-7--7b-|
a----------------------|--2--2-2--2--2-2--3--3-3--3--3-3--5--5-5--5--5-5-----|
e----------------------|--0--0-0--0--0-0-------------------------------------|
                                                     pre-solo-2x /solo-
e----------------------------------------------------|----------|-15-12-10----|
b----------------------------------------------------|----------|----------12-|
g-----------------5--5-5--5--5-5--7--7-7--7--7-7--7b-|---5-7-7b-|-------------|
d-2--2-2--2--2-2--5--5-5--5--5-5--7--7-7--7--7-7--7b-|-2-5-7-7b-|-------------|
a-2--2-2--2--2-2--3--3-3--3--3-3--5--5-5--5--5-5-----|-2-3-5----|-------------|
e-0--0-0--0--0-0-------------------------------------|-0--------|-------------|
                                       verse-
e-------------------------------------|---------------------------------------|
b-12b-10----------10--12b-12b-12b-12b-|---------------------------------------|
g-------12-9-9-12---------------------|-----------------5-5-5-5-5-5-5-5-7-7-7-|
d-------------------------------------|-2-2-2-2-2-2-2-2-5-5-5-5-5-5-5-5-7-7-7-|
a-------------------------------------|-2-2-2-2-2-2-2-2-3-3-3-3-3-3-3-3-5-5-5-|
e-------------------------------------|-0-0-0-0-0-0-0-0-----------------------|
                                           Chorus-
e---------------------------|------------|-----------------------------------|
b---------------------------|-repeat-----|-----------------------------------|
g-7-7-7-7-7-7-7-7-7-7-7-7-7-|-verse-once-|-----------------5--5-5--5--5-5--7-|
d-7-7-7-7-7-7-7-7-7-7-7-7-7-|---more-----|-2--2-2--2--2-2--5--5-5--5--5-5--7-|
a-5-5-5-5-5-5-5-5-5-5-5-5-5-|------------|-2--2-2--2--2-2--3--3-3--3--3-3--5-|
e---------------------------|------------|-0--0-0--0--0-0--------------------|

e--------------------------------------------------------------------|--------|
b-----------------------------------------------------------------------------|repeat
g-7-7--7--7-7--7b------------------5--5-5--5--5-5--7--7-7--7--7-7--7b---------|chorus
d-7-7--7--7-7--7b--2--2-2--2--2-2--5--5-5--5--5-5--7--7-7--7--7-7--7b|-once---|
a-5-5--5--5-5------2--2-2--2--2-2--3--3-3--3--3-3--5--5-5--5--5-5----|--more--|
e------------------0--0-0--0--0-0------------------------------------|--------|

e---------------------------------------------|-------------------------------|
b---------------------------------------------|-------------------------------|
g---------------7-----------------------------|---------5-5-5-5-7-7-7-7-7-7-7-|
d--------7--------10-9--10-9--10-9b~---10-9b~-|-2-2-2-2-5-5-5-5-7-7-7-7-7-7-7-|
a-7-9-10---10-9-------------------------------|-2-2-2-2-3-3-3-3-5-5-5-5-5-5-5-|
e---------------------------------------------|-0-0-0-0-----------------------|


e------------------|
b------------------|
g-7---------4~-----|
d-7--2~-5~--4~-----|
a-5--2~-5~--2~-----|
e----0~-3~---------|
comments
We did not receive enough feedback on this tab! Please rate:
print report bad tab
1 2 3 4 5
I want to post or [tab]
guest
You may want to rate the tab now too:
select rating
Please do not post tabs as comments. Select "correction" instead!