Oops, an error
Loading. Please wait.

Anarchy Ok Tab

version 2
version 2

Whole song

by Cog
505 views 3 this week
no commentswrite comment
1 2 3 4 5
please rate
add to favorites
launch autoscroll
font size
0
reset
how to read this tab
guitar tuner
Autoscroll
slow
fast
+/-
esc
set tempo
stop
Help us to improve Ultimate-Guitar.com Take our survey!
×
Author
Difficulty
jarrah 87
intermediate
-------------------------------------------------------------------------------
                             Anarchy OK - Cog
-------------------------------------------------------------------------------
Tabbed by:Jarrah Harburn 
Email:jarrah_h@Hotmail.com

Tuning: Down a step + Drop D (CGCFAD)

Intro:
Luke (bass) is on some rant here. I heard them live and it sounded something like
"Hey, what you doing round here? Dont you know this is the Anarcy OK!"

e|---------------------------------------------------------------------------|
B|---------------------------------------------------------------------------|
G|---------------------------------------------------------------------------|
D|----5-----------------5--7--3-----------------5----------------5--7--3-----|
A|----5-----------------5--7--3-----------------5----------------5--7--3-----|
E|----5-----------------5--7--3-----------------5----------------5--7--3-----|

e|---------------------------------------------------------------------------|
B|---------------------------------------------------------------------------|
G|---------------------------------------------------------------------------|
D|----5-----------------5--7--3-----------------5----------------5--7--3-----|
A|----5-----------------5--7--3-----------------5----------------5--7--3-----|
E|----5-----------------5--7--3-----------------5----------------5--7--3-----|

e|-----------------------------------------------|
B|-----------------------------------------------|
G|2-2-2------------------------------------------|
D|-----3-3-3-0-0-0-2-2-2------------0h3-0-0-3-0--|      (Palm Muted)
A|----------------------0-0-0-3-3-3--------------|
E|-----------------------------------------------|

"I can't wait till tomorrow,
I got a suit case packed, im leaving.
I got a key to the lock inta your head,
you know the truth is seperate."

e|-----------------------------------------------|
B|-----------------------------------------------|
G|2-2-2------------------------------------------|
D|-----3-3-3-0-0-0-2-2-2------------0h3-0-0-3-0--|      (Open)
A|----------------------0-0-0-3-3-3--------------|
E|-----------------------------------------------|

e|-----------------------------------------------|
B|-----------------------------------------------|
G|2-2-2------------------------------------------|
D|-----3-3-3-0-0-0-2-2-2------------0h3-0-0-3-0--|      (2X)
A|----------------------0-0-0-3-3-3--------------|
E|-----------------------------------------------|



e|---------------------------------------------------------------------------|
B|---------------------------------------------------------------------------|
G|---5--------------------------------7--------------------------------------|
D|------3--2--0--------0-0-3-0-3-0------3h5--3--2---------0-0-3-0-3-0--------|      
A|--------------3--0-------------------------------3--0----------------------|
E|---------------------------------------------------------------------------|

e|---------------------------------------------------------------------------|
B|---------------------------------------------------------------------------|
G|---5-----------------------------7-----------------------------------------|
D|------3--2--0------0-0-3-0-3-0-----3h5--3--2---------0h3-0-----------------|
A|--------------3--0----------------------------3--0-------------------------|
E|---------------------------------------------------------------------------|

Not sure about this part. The open chord sounds right, but the 5 and 7 riff 
might be off. Any help would be great (jarrah_h@hotmail.com).

e|---------------------------------------------------------------------------|
B|---------------------------------------------------------------------------|
G|---------------------------------------------------------------------------|
D|----5-h-7-7-0-----------------5-h-7-7-3----------5-h-7-7-0-3---------------|       (2X)
A|----5-h-7-7-0-----------------5-h-7-7-3----------5-h-7-7-0-3---------------|
E|----5-h-7-7-0-----------------5-h-7-7-3----------5-h-7-7-0-3---------------|

He sings with just the bass playing, then this riff plays subsequently.

"Walkin in the park, just the other day I gotta hit with a rock,
Easing in the atmosphere the people stole the money"    (2X)

Sings the repeat through a mic effect that kills the bass in his voice.

e|---------------------------------------------------------------------------|
B|---------------------------------------------------------------------------|
G|---------------------------------------------------------------------------|
D|----5-h-7-7-0-----------------5-h-7-7-0------------------------------------|       
A|----5-h-7-7-0-----------------5-h-7-7-0------------------------------------|
E|----5-h-7-7-0-----------------5-h-7-7-0------------------------------------|


"Those of us who stand around and wait until the penny drops, 
Introducing isolated isotopes of worry" (2X) 

Same deal with the mic effect.

e|---------------------------------------------------------------------------|
B|---------------------------------------------------------------------------|
G|---------------------------------------------------------------------------|
D|----5-h-7-7-0-----------------5-h-7-7-0------------------------------------|       
A|----5-h-7-7-0-----------------5-h-7-7-0------------------------------------|
E|----5-h-7-7-0-----------------5-h-7-7-0------------------------------------|

"resisting in the sinking sun the iris and the cataracts,
got five hundred bucks, outta here, executing anarchy"

"Executing anarcy, Ok" (3X)

e|--------------------------------------------------------------------------------------------|
B|--------------------------------------------------------------------------------------------|
G|----5--5-5-5-5-5---5-5-5-5-5---5-5-5-5-5h7-7-7--3--3-3-3-3------------3--3-3-3-3------------|
D|----5--5-5-5-5-5---5-5-5-5-5---5-5-5-5-5h7-7-7--3--3-3-3-3-0--0-0-0-0-3--3-3-3-3-0--0-0-0-0-|     (2X)
A|----3--3-3-3-3-3---3-3-3-3-3---3-3-3-3-3h5-5-5--1--1-1-1-1-0--0-0-0-0-1--1-1-1-1-0--0-0-0-0-|
E|-----------------------------------------------------------0--0-0-0-0------------0--0-0-0-0-|

"I gotta..."

e|---------------------------------------------------------------------------|
B|---------------------------------------------------------------------------|
G|---------------------------------------------------------------------------|
D|----5-h-7-7-0-----------------5-h-7-7-3----------5-h-7-7-0-3---------------|       (2X)
A|----5-h-7-7-0-----------------5-h-7-7-3----------5-h-7-7-0-3---------------|
E|----5-h-7-7-0-----------------5-h-7-7-3----------5-h-7-7-0-3---------------|

"Unfortunately time is geared to spin around the centre clock, 
not as if you give a shit or give a fuck or care a lot."

"Rounding on the rollercoaster, imitating counterfeit cars,
come up for air, no-one cares, jump the queue for anarchy"

e|----15-15--10-10--(14)--(14)---14-14---------------------------------------|
B|----15-15--10-10--(14)--(14)---14-14---------------------------------------|
G|----12-12--7--7---(11)--(11)---11-11---------------------------------------|
D|---------------------------------------------------------------------------|        (4X)
A|---------------------------------------------------------------------------|
E|---------------------------------------------------------------------------|

"Anarcy, Ok" (several times)

e|---------------------------------------------------------------------------|
B|---------------------------------------------------------------------------|
G|--------5-7-8-7-5-----------------------5-7-8-7-5--------------------------|
D|----5-7-----------7-5-4h5----------5-7-----------7-5-4h5-------------------|        (7X)
A|---------------------------------------------------------------------------|
E|---------------------------------------------------------------------------|

Clean drawn out notes while above riff is playing on synth or another guitar.
e|---------------------------------------------------------------------------|
B|---------------------------------------------------------------------------|
G|----7------------------------------3---------------------------------------|
D|----7------------------------------3---------------------------------------|        (7X)
A|----5------------------------------1---------------------------------------|
E|---------------------------------------------------------------------------|

"You gotta get up, you gotta stand up,
You gotta get up, you gotta stand up."

e|---------------------------------------------------------------------------|
B|---------------------------------------------------------------------------|
G|----5--5-5----3--3-3----5--5-5-----3--3-3----------------------------------|
D|----5--5-5----3--3-3----5--5-5-----3--3-3----------------------------------|
A|----7--7-7----1--1-1----7--7-7-----1--1-1----------------------------------|
E|---------------------------------------------------------------------------|

e|--------------------------------------------------------------------------------------------|
B|--------------------------------------------------------------------------------------------|
G|----5--5-5-5-5-5---5-5-5-5-5---5-5-5-5-5h7-7-7--3--3-3-3-3-0--0-0-0-0-3--3-3-3-3-3--3h2-----|
D|----5--5-5-5-5-5---5-5-5-5-5---5-5-5-5-5h7-7-7--3--3-3-3-3-0--0-0-0-0-3--3-3-3-3-3--3h2-----|    
A|----3--3-3-3-3-3---3-3-3-3-3---3-3-3-3-3h5-5-5--1--1-1-1-1-0--0-0-0-0-1--1-1-1-1-1--1h0-----|
E|-----------------------------------------------------------0--0-0-0-0-----------------------|

e|--------------------------------------------------------------------------------------------|
B|--------------------------------------------------------------------------------------------|
G|----5--5-5-5-5-5--------------------------------3--3-3-3-3-0--0-0-0-0-3--3-3-3-3-3--0-0-0-0-|
D|----5--5-5-5-5-5---5-5-5-5-5---3-3-3-3-3---0-0--3--3-3-3-3-0--0-0-0-0-3--3-3-3-3-3--0-0-0-0-| 
A|----3--3-3-3-3-3---5-5-5-5-5---3-3-3-3-3---0-0--1--1-1-1-1-0--0-0-0-0-1--1-1-1-1-1--0-0-0-0-|
E|-------------------5-5-5-5-5---3-3-3-3-3---0-0-------------0--0-0-0-0---------------0-0-0-0-|

"I can't wait till tomorrow,
I got a suit case packed, im leaving.
I got a key to the lock inta your head,
you know the truth is seperate."         

e|-----------------------------------------------|
B|-----------------------------------------------|
G|2-2-2------------------------------------------|
D|-----3-3-3-0-0-0-2-2-2------------0h3-0-0-3-0--|      (4X)
A|----------------------0-0-0-3-3-3--------------|
E|-----------------------------------------------|

"I can't wait till tomorrow,
I got a suit case packed, im leaving.
I got a key to the lock inta your head,
you know the truth is seperate."  

e|---------------------------------------------------------------------------|
B|---------------------------------------------------------------------------|
G|---5--------------------------------7--------------------------------------|
D|------3--2--0--------0-0-3-0-3-0------3h5--3--2---------0-0-3-0-3-0--------|      
A|--------------3--0-------------------------------3--0----------------------|
E|---------------------------------------------------------------------------|

e|---------------------------------------------------------------------------|
B|---------------------------------------------------------------------------|
G|---5-----------------------------7-----------------------------------------|
D|------3--2--0------0-0-3-0-3-0-----3h5--3--2---------0h3-0-3-0-0-----------|
A|--------------3--0----------------------------3--0-------0-3-0-0-----------|
E|---------------------------------------------------------0-3-0-0-----------|

e|---------------------------------------------------------------------------|
B|---------------------------------------------------------------------------|
G|---------------------------------------------------------------------------|
D|---0--3h5-3p0----0--3h5-3p0----0--3h5-3p0----0--3h5-3p0--------------------| 
A|---0--3h5-3p0----0--3h5-3p0----0--3h5-3p0----0--3h5-3p0--------------------|
E|---0--3h5-3p0----0--3h5-3p0----0--3h5-3p0----0--3h5-3p0--------------------|
 
Then this, repeat sequence four times.
e|---------------------------------------------------------------------------|           
B|---------------------------------------------------------------------------|
G|---------------------------------------------------------------------------|
D|---3--3h5-3h5----3--3h5-3h5----3--3h5-3h5----3--3h5-3h5--------------------|
A|---3--3h5-3h5----3--3h5-3h5----3--3h5-3h5----3--3h5-3h5--------------------|
E|---3--3h5-3h5----3--3h5-3h5----3--3h5-3h5----3--3h5-3h5--------------------|

"Anarcy, ok" (repeated several times)

e|---------------------------------------------------------------------------|
B|---------------------------------------------------------------------------|
G|---------------------------------------------------------------------------|
D|----5-h-7-7-0-----------------5-h-7-7-3----------5-h-7-7-0-3---------------|       (2X)
A|----5-h-7-7-0-----------------5-h-7-7-3----------5-h-7-7-0-3---------------|
E|----5-h-7-7-0-----------------5-h-7-7-3----------5-h-7-7-0-3---------------|

"Ok" (2X)

e|---------------------------------------------------------------------------|
B|---------------------------------------------------------------------------|
G|---------------------------------------------------------------------------|
D|----5-h-7-7-0------5-h-7-7-0--------------5-h-7-7-3---------5-h-7-7-0-3----|       (2X)
A|----5-h-7-7-0------5-h-7-7-0--------------5-h-7-7-3---------5-h-7-7-0-3----|
E|----5-h-7-7-0------5-h-7-7-0--------------5-h-7-7-3---------5-h-7-7-0-3----|

e|---------------------------------------------------------------------------|
B|---------------------------------------------------------------------------|
G|---------------------------------------------------------------------------|
D|----12--12-12---12-12-12---12--12-12---12-12-12----------------------------|     
A|----12--12-12---12-12-12---12--12-12---12-12-12----------------------------|
E|----12--12-12---12-12-12---12--12-12---12-12-12----------------------------|

e|---------------------------------------------------------------------------|
B|---------------------------------------------------------------------------|
G|---------------------------------------------------------------------------|
D|----12--12-12---12-12-12---12--12-12---------------------------------------|     
A|----12--12-12---12-12-12---12--12-12---------------------------------------|
E|----12--12-12---12-12-12---12--12-12---------------------------------------|


| /  slide up
| \  slide down
| h  hammer-on
| p  pull-off
| ~  vibrato
| +  harmonic
| x  Mute note
===============================================================================

Suggest correction
What's this?
You can suggest a correction to this tab. Community and Mods will review your correction and vote to approve or reject it.
comments
We did not receive enough feedback on this tab! Please rate:
print report bad tab
1 2 3 4 5
guest
You may want to rate the tab now too:
select rating
Please do not post tabs as comments. Select "correction" instead!