Oops, an error
Loading. Please wait.

Bitter Pills Tab

by Cog
1,793 views 1 this week
no commentswrite comment
1 2 3 4 5
please rate
add to favorites
launch autoscroll
font size
0
reset
how to read this tab
guitar tuner
Autoscroll
slow
fast
+/-
esc
set tempo
stop
Help us to improve Ultimate-Guitar.com Take our survey!
×
Author
-------------------------------------------------------------------------------
                             BITTER PILLS - Cog
-------------------------------------------------------------------------------
Tabbed by: Corbin Nesa
Email: c_nesa@hotmail.com

Tuning: Drop C
I know that Cog use very odd tunings and that this song is more than likely not in C, 
this sounds right to me anyway

It's only the intro, but its played through most of the song anyway, as well as some 
weird and funky sounds
Please rate!


Intro - Played with some reverb
[0:54] - [1:08]
D|------------------------------------------------------------------|
A|------------------------------------------------------------------|
F|------------------------------------------------------------------|
C|-----------1-------1-------------------0-------0-------0-------3--|
G|-------3-------3-------------------3-------3-------3-------3------|
C|------------------------------------------------------------------|

D|------------------------------------------------------------------|
A|------------------------------------------------------------------|
F|------------------------------------------------------------------|
C|-----------1-------1-------------------0-------0-------0---3------|
G|---3---3-------3-------------------3-------3-------3--------------|
C|------------------------------------------------------------------|

D|------------------------------------------------------------------|
A|------------------------------------------------------------------|
F|------------------------------------------------------------------|
C|-----------1-------1-------------------0-------0-------0-------3--|
G|---0---1-------1-------------------1-------1-------1-------1------|
C|------------------------------------------------------------------|

D|------------------------------------------------------------------|
A|------------------------------------------------------------------|
F|-----------------------------------------------------------0------|
C|-----------1-------1-------------------0-------0-------0----------|
G|---0---1-------1-------------------1-------1-------1--------------|
C|------------------------------------------------------------------|

This time there's an open on the G before the same continues
[1:08] - [1:35]
D|------------------------------------------------------------------|
A|------------------------------------------------------------------|
F|------------------------------------------------------------------|
C|-----------1-------1-------------------0-------0-------0-------3--|
G|---0---3-------3-------------------3-------3-------3-------3------|
C|------------------------------------------------------------------|

D|------------------------------------------------------------------|
A|------------------------------------------------------------------|
F|------------------------------------------------------------------|
C|-----------1-------1-------------------0-------0-------0---3------|
G|---3---3-------3-------------------3-------3-------3--------------|
C|------------------------------------------------------------------|

D|------------------------------------------------------------------|
A|------------------------------------------------------------------|
F|------------------------------------------------------------------|
C|-----------1-------1-------------------0-------0-------0-------3--|
G|---0---1-------1-------------------1-------1-------1-------1------|
C|------------------------------------------------------------------|

D|------------------------------------------------------------------|
A|------------------------------------------------------------------|
F|-----------------------------------------------------------0------|
C|-----------1-------1-------------------0-------0-------0----------|
G|---0---1-------1-------------------1-------1-------1--------------|
C|------------------------------------------------------------------| X2

And thats it :)

| /  slide up
| \  slide down
| h  hammer-on
| p  pull-off
| ~  vibrato
| +  harmonic
| x  Mute note
===============================================================================
Suggest correction
Give kudos to tab author, rate the tab!
1 2 3 4 5
comments
print report bad tab
guest
You may want to rate the tab now too:
select rating
Wanna post a correction for this tab? Suggest correction