Oops, an error
Loading. Please wait.

Doors Tab

version 2
version 2

Intro

Whole song

by Cog
480 views 1 this week
no commentswrite comment
1 2 3 4 5
excellent!
x 1
add to favorites
launch autoscroll
font size
0
reset
how to read this tab
guitar tuner
Tab Pro tools
  • play this tab
  • loop segment
  • change instrument
  • show fretboard
  • metronome
Autoscroll
slow
fast
+/-
esc
set tempo
stop
Contributor
Difficulty
Tuning
intermediate
C G C F A D
-----------------------------------------------------------------------------
Doors (now and then my life feels like it's going nowhere) - Cog
-----------------------------------------------------------------------------

worked out as much as i can, not sure if it's all correct.
you'll probably need 2 people playing the song as i could hear a seperate part in the 
background of the introduction.

Email me if there is anything incorrect or missing:

pie-man101@hotmail.co.uk
Tabbed By: Martin Azzaro.

Tuning: Drop C - C G C F A D

Intro: play as many times as needed.

D|--------------------------------------------------------------------------|
A|--------------------------------------------------------------------------|
F|--------------------------------------------------------------------------|
C|--7-5-0-5-7-0-7-5-0-5-7-0-5-7-0-7-5-0-5-7-0-7-5-0-5-8-0-8-5-0-5-8-0-8-5-0-|
G|--------------------------------------------------------------------------|
C|--------------------------------------------------------------------------|

D|--------------------------------------------------------------------------|
A|--------------------------------------------------------------------------|
F|--------------------------------------------------------------------------|
C|--5-10-0-10-7-0-7-10-0-10-7-0---------------------------------------------|
G|--------------------------------------------------------------------------|
C|--------------------------------------------------------------------------|

Background of introduction: 4 mins and onwards. repeat as many times as needed.
D|--------------------------------------------------------------------------|
A|--------------------------------------------------------------------------|
F|--------4---------------------------7----------2--------------------------|
C|--------5---------------------------8----------3--------------------------|
G|--------5---------------------------8----------3--------------------------|
C|--5-----5---------------5--7--8-----8----------3--------------------------|

leading up to the next part is this, played softly.
D|--5-------1---3---5-------1---3---5-------1---3---5-------1---3---5-------|
A|------3---------------3---------------3---------------3-------------------|
F|--------------------------------------------------------------------------|
C|--------------------------------------------------------------------------|
G|--------------------------------------------------------------------------|
C|--------------------------------------------------------------------------|

D|--------------------------------------------------------------------------|
A|--------------------------------------------------------------------------|
F|--7--7-----9--9-----10-10----9--9-----7--7-----9--9-----10-10----9--9-----|
C|--0--0-----0--0-----0--0-----0--0-----0--0-----0--0-----0--0-----0--0-----|
G|--8--8-----10-10----12-12----10-10----8--8-----10-10----12-12----10-10----|
C|--------------------------------------------------------------------------|
/\ play 3 times then

\/ play this once.
D|--------------------------------------------------------------------------|
A|--------------------------------------------------------------------------|
F|--7--7-----9--9-----10-10----9--9-----7--7-----9--9-----10-10----14-14-12-|
C|--0--0-----0--0-----0--0-----0--0-----0--0-----0--0-----0--0-----0--0--0--|
G|--8--8-----10-10----12-12----10-10----8--8-----10-10----12-12----15-15-13-|
C|--------------------------------------------------------------------------|

D|--------------------------------------------------------------------------|
A|--------------------------------------------------------------------------|
F|--------------------------------------------------------------------------|
C|--10-10-10-10-10-10-10\8--8--8--8--8--8-----------------------------------|
G|--10-10-10-10-10-10-10\8--8--8--8--8--8-----------------------------------|
C|--10-10-10-10-10-10-10\8--8--8--8--8--8-----------------------------------|
comments
We did not receive enough feedback on this tab! Please rate:
print report bad tab
1 2 3 4 5
I want to post or [tab]
guest
You may want to rate the tab now too:
select rating
Please do not post tabs as comments. Select "correction" instead!