Oops, an error
Loading. Please wait.

Real Life Tab

version 1
version 1

Whole song

Interactive

by Cog
3,253 views 6 this week
no commentswrite comment
1 2 3 4 5
excellent!
x 4
add to favorites
launch autoscroll
font size
0
reset
how to read this tab
guitar tuner
Autoscroll
slow
fast
+/-
esc
set tempo
stop
Help us to improve Ultimate-Guitar.com Take our survey!
×
Artist: Cog
Song: Real Life
Tabber: David Barnes


Intro
D|---------------------3h55-5-------|
A|-----------1--3------6--6-6-------|
F|--5--7-5----0--0------------------|
C|---5--5---3--1--3-/55-------------|
G|-6--6-----------------------------|
C|----------------------------------|

Chorus
D|---1-----5-----5-----|
A|---------6-----6-----|
F|---------------------|
C|-1-----3-----5-------|
G|-1-----3-----5-------|
C|-1-----3-----5-------|

Verse
D|-------1--1----|
A|----------1----|
F|-------0h22----|
C|-0-0-----------|
G|-0-0-----------|
C|-0-0-----------|

Fill 1     I couldn’t work this bit out, I think its based around these
             notes
D|-1----1-------------------------------------------------------|
A|-1----1-------------------------------------------------------|
F|-2----0-------------------------------------------------------|
C|--------------------------------------------------------------|
G|--------------------------------------------------------------|
C|--------------------------------------------------------------|

Riff 1
D|-----------111-1-0001-----------|
A|-----------333-3-1113-----------|
F|--------------------------------|
C|-333-8-5------------------------|
G|-333-8-5------------------------|
C|-333-8-5------------------------|

Riff 2                           End riff 2
D|-1h3-------1h3-----1h3------|-1h3-------------|
A|----1/3-------1/3-----1/3---|----1/3----------|
F|-------23--------25------22-|-----------------|
C|----------------------------|-----------------|
G|----------------------------|-----------------|
C|----------------------------|-----------------|


Riff 3
D|-----------------------------|
A|-----------------------------|
F|-----------------------------|
C|-35------35------35----------|
G|---3501----3503----350-------|
C|----------------------5------|

Fill 2
D|-------------------------------------------------------|
A|-------------------------------------------------------|
F|-------------------------------------------------------|
C|-3-5------------3-5---0h3h5------3-5-------------------|
G|-----3-5-0-1--------3-------3--------3-5-0-------------|
C|-------------------------------------------5-----------|

Riff 4
D|----------------------------|
A|----------------------------|
F|----------------------------|
C|-1/8-8--8/10-10--5----------|
G|-1/8-8--8/10-10--5----------|
C|-1/8-8--8/10-10--5----------|

Riff 5
D|--------------------------------------|
A|--------------------------------------|
F|--------------------------------------|
C|-1/8--8----8/10--10---12-10-5--533----|
G|-1/8--8----8/10--10---12-10-5--533----|
C|-1/8--8----8/10--10---12-10-5--533----|

Riff 6
D|------------------------------|
A|------------------------------|
F|------------------------------|
C|-1---1/3---3/5--1-------------|
G|-1---1/3---3/5--1-------------|
C|-1---1/3---3/5--1-------------|

Order:
Intro x4
Chorus x4
Verse x8
Fill 1
Verse x4
Fill 1
Verse x4
Chorus x4
Verse x6
Fill 1
Verse x4
Fill 1
Riff 1 x2
Riff 2 x4
Intro x4
Riff 3 x2
Fill 2
Riff 3 x1
Riff 4 x1
Riff 5 x1
Riff 4 x1
Riff 6 x1
Suggest correction
comments
print report bad tab
guest
You may want to rate the tab now too:
select rating
Please do not post tabs as comments. Select "correction" instead!