Oops, an error
Loading. Please wait.

Real Life Tab

version 2
version 2

Whole song

Interactive

by Cog
774 views 1 this week
no commentswrite comment
1 2 3 4 5
please rate
add to favorites
launch autoscroll
font size
0
reset
how to read this tab
guitar tuner
Autoscroll
slow
fast
+/-
esc
set tempo
stop
Help us to improve Ultimate-Guitar.com Take our survey!
×
Difficulty
Tuning
intermediate
C G C F A D
REAL LIFE
tuning: CGCFGD#

Tabbed by Sean Owen

*intro/bridge
D#|------------------|--2--4--0--|
G |----------5p0-----|--0--0--0--|
F |----5p0-------5--.|-----------|
C |--3-----3--------.|-----------|
G |------------------|-----------|
C |------------------|-----------|

FIG 1
underated...
D#|-------0-------0-------0---|
G |-------0-------0-------0---|
F |.-(3)3---3----------------.|
C |.--1-1---1-3-3---3-5-5----.|
G |---1-1---1-3-3---3-5-5-----|
C |---1-1---1-3-3---3-5-5-----|


FIG 2a
jumpin and i hope you notice...
                    into the rip....
D#|-----(0)-------|-(0)--(0)--|
G |------5p0--0---|-(8)--(0)--|
F |------0---h5--.|-(0)--(9)--|
C |------7----7--.|--10---10--|
G |------5----5---|--8----8---|
C |-0-0-----------|--0----0---|

FIG 2b
into the rip
D#|------(0)-------|
G |-------5p0--0---|
F |-------0---h5--.|
C |-------7----7--.|
G |-------5----5---|
C |-0""""""""""""--|

FIG 1

FIG 2a
FIG 2b

fill
|-------------|
|-------------|
|-------------|
|-3-3-3--8--5-|
|-3-3-3--8--5-|
|-3-3-3--8--5-|

|-(0)-------(0)-------|-------------|
|-(0)--------7-7-7-7--|-------------|
|--7-7-7--7-(0)-------|-------------|
|--8-8-8--8--8-8-8-8--|-3-3-3--8--5-|
|--8-8-8--8--8-8-8-8--|-3-3-3--8--5-|
|--8-8-8--8--8-8-8-8--|-3-3-3--8--5-|

|-(0)-------(0)-------|
|--5-5-5--5-(0)-------|
|-(0)--------5-5-5-5--|
|--7-7-7--7--7-7-7-7--|
|--7-7-7--7--7-7-7-7--|
|--7-7-7--7--7-7-7-7--|

(ie 5)
|--0---------------0---------------0--------------|
|--0----(5-5-5-5)--0-----7-7-7-7---5--5-----------|
|-(5--5)-----------7--7------------0-----5-5-5-5--|
|--5--5--5-5-5-5---8--8--8-8-8-8---7--7--7-7-7-7--|
|--5--5--5-5-5-5---8--8--8-8-8-8---7--7--7-7-7-7--|
|--5--5--5-5-5-5---8--8--8-8-8-8---7--7--7-7-7-7--|

"REAL LIFE!"
|-------0--0----------|
|-------0--0----------|
|-------3--3----------|
|-1-1-1-1--1--1-1-1-1-|
|-1-1-1-1--1--1-1-1-1-|
|-1-1-1-1--1--1-1-1-1-|

D#|-0h2---------0h2---------0h2---------|
G |-----3/5p0-------3/5p0-------3/5p0---|
F |-----------3-----------5-----------0-|
C |-------------------------------------|
G |-------------------------------------|
C |-------------------------------------|

and i hope you notice...
D#|------------------|--2--4--0--|
G |----------5p0-----|--0--0--0--|
F |----5p0-------5--.|-----------|
C |--3-----3--------.|-----------|
G |------------------|-----------|
C |------------------|-----------|

D#|-------------------------------------|
G |-------------------------------------|
F |-------------------------------------|
C |-3h5---------3h5---------3h5---------|
G |-----3h5p3-1-----3h5p3-3-----3h5p3---|
C |-----------------------------------5-|

D#|-------------------------------------|
G |-------------------------------------|
F |-------------------------------------|
C |-3h5---------3h5---------3h5---------|
G |-----3h5p3-1-----3h5p3-3-----3h5p3---|
C |-----------------------------------5-|

D|---------(0)--------------(0)-------------------(0)--------|
A|---------(0)--------------(0)-------------------(0)--------|
F|.--------(0)--------------(0)-------------------(0)-------.|
C|.--8--8-8-8--8-8/10--10-10-10--10-10-(12)/5--5-5-5--(3/)--.|
G|---8--8-8-8--8-8/10--10-10-10--10-10-(12)/5--5-5-5--(3/)---|
C|---8--8-8-8--8-8/10--10-10-10--10-10-(12)/5--5-5-5--(3/)---|

D|---------(0)-----------(0)-------------(0)--------|---------0--||
A|---------(0)-----------(0)-------------(0)--------|---------0--||
F|.--------(3)-----------(0)-------------(0)-------.|---------3--||
C|.--1--1-1-1--1-1/3--3-3-3--3-3-3/5--5-5-5--(3/)--.|--1--1-1-1--||
G|---1--1-1-1--1-1/3--3-3-3--3-3-3/5--5-5-5--(3/)---|--1--1-1-1--||
C|---1--1-1-1--1-1/3--3-3-3--3-3-3/5--5-5-5--(3/)---|--1--1-1-1--||

Suggest correction new What's this?
You can suggest a correction to this tab. Community and Mods will review your correction and vote to approve or reject it.
comments
We did not receive enough feedback on this tab! Please rate:
print report bad tab
1 2 3 4 5
guest
You may want to rate the tab now too:
select rating
Please do not post tabs as comments. Select "correction" instead!